PrimaNota.ru - самый крупный в мире бесплатный архив песенных текстов, аккордов, табулатур и нот


Luxury - Kill The Famous - таба, видео

Регистрация Запомнить меня
Войти через:  Facebook Google Twitter Vk Yandex Mail.ru

Luxury - Kill The Famous - таба, видео

Печатать
Просмотров: 66
		   SONG: Kill the Famous
ARTIST: Luxury
WRITTEN BY: Luxury
ALBUM: Amazing and Thank You
COPYRIGHT: 1995 Thirsty Moon River Publishing (ACAP)  
TRANSCRIBED BY: Adam McLain  (gelnm@mindspring.com)
TUNING: Standard

Please e-mail suggestions or comments

Intro is difficult to tell because the palm-muted 
chords sound too similar

INTRO:   palm-muted, not distorted
	C		     Em
e---------------0------------------------------------|
B---------------1---------------------0-------------|
G---------------0--------------------0-0-----------|  
D-2-22--22--2222------2--22--22--2222------|repeat 8X
A-3-33--33--3333------2--22--22--2222------|
E----------------------------------------------------|

Repeat the intro throughout the verses of the song
where it says C and Em;however, the chords in the 
chorus and prechorus are open chords

Verse 1 (clean)
C				    Em   	
The voice you hear is not my singing voice
   C                                     Em
But instead it's just the voice inside my head
       C     				            Em  
And it's where I can say all those brilliant brutal words
                 C			 Em
Brutal brilliant words that can never be said

PRECHORUS: (distorted)
	C      D           C      D
such as...    oh, la la la la  haaaa

(clean)	C	      Em	   C		    Em
e-------------0-------------0--------------0---------------------------------------0---|
B-------------1-------------0--------------1-------------------------------------0-0--|
G-------------0-------------0--------------0------------------------------------0-----|
D-2-22-22-2222--2-22-22-2222---2-22-22-2222------2-22-22-2222------|
A-3-33-33-3333--2-22-22-2222---3-33-33-3333------2-22-22-2222------|
E----------------------------------------------------------------------------------------|

Verse 2  (play full chord undistorted)
        C				Em
And I'd give my life just to have your diamond smile
	  C                             Em    
'cos it's gotten you where you are every mile  
       C 
but that is just your dark talent 
Em
a pinky full of real talent
 C                                    Em 
hooray, hooray, hooray I'm jealous of you again

PRECHORUS:  (distorted)
C	D	C	D
      ah  lalalalaaa  haaah

CHORUS:  (distorted)

G	 C	     The heavy electric riff in the background is:	
Kill the famous		  /=slide		
G	 C	     e--------------------------|repeat	
Kill the Famous    B--------------------------|until 		
G	 C	     G---10-10/12-9-9-9/10/12---|chorus
Kill the famous     D--------------------------|is over			
G	        C				
Kill, kill the famous					
		  G  F  G  F  G  F  G  F  G  F  G  F  G  F  G  F 
your fingers, lips

Then: 
(Full chords)
C     Em

repeat intro 4x


SOLO: (clean, but powerful)  *hammer-on 5th fret then slide to 2nd fret
                   *		                   *          
e-333-3--335/2--2/0----333-3-3-335/2--2/0---|singing starts
B------------------------------------------------------|
	        		              *
e-3333----------------------------335/2--------------2/0--|
B--------------------------------------------------------------|
They say, hey son,                you can wear the ring	
It's as good as gold              it's a proven thing

			            *
e-3/5-----------------------------335/2--------------2/0--|
B-------------------------------------------------------------|
but lead me not to temptation    whether sweet or sour I'm sure to give in


e--000/3---------------------------------33/5555555/7/0--|
B----------------------------------------------------------------|
  hooray, hooray, hooray     I'm someone else again


CHORUS:  (distorted)

G	 C
Kill the famous
G	 C
Kill the famous
G	 C
Kill the famous
G	 C
Kill the famous
G
Kill, kill the famous
G                                          			
and the famous they aren't naturally bad
C                                 
has anyone ever been naturally bad
G
and the famous they aren't naturally bad
C
has anyone ever been naturally bad
G           C
no, no, no, no
		G  F  G  F  G  F  G  F  G  F  G  F  G  F
your famous lips


end on an undistorted C
     
Добавлено: 09.07.2013
Вам также может быть интересно:
Другие материалы по этой песне:
  • Аккорды и текст

Страница создана 09.07.2013
http://primanota.ru/luxury/kill-the-famous-chords.htm
Привет, Гость.
Предлагаем пройти революционный курс по гитаре.
Подарок от PrimaNota.Ru, забирай!