PrimaNota.ru - самый крупный в мире бесплатный архив песенных текстов, аккордов, табулатур и нот


Luxurious Adults - Proud Im So Proud - таба, видео

Регистрация Запомнить меня
Войти через:  Facebook Google Twitter Vk Yandex Mail.ru

Luxurious Adults - Proud Im So Proud - таба, видео

Печатать
Просмотров: 68
SONG: Proud
ARTIST:The Luxurious_Adults
ALBUM: Bend Down
AUTHOR: C Seam
Tabbed by: author
TUNING: STANDARD

() very short note
/ slide
5^ r bend and release
^^^^ heavy vibrato
~ wah-wah pedtal
x palm mute

-|--------------|---------------|---------------|------------------|
-|--------------|---------------|------4~-~-----|-----------4-~-~--|
-|--------------|---------------|------4~-~-----|-----------4-~-~--|
-|--------------|---------------|---------------|------------------|
-|-x-x-x-x------|-x-x-x-x-------|---------------|--x-x-x-x---------|
-|-x-x-x-x------|-x-x-x-x-------|---------------|--x-x-x-x---------|
Im proud Im proud to be gayyyyyyyyy yeahhhhhhh

-|--------------|---------------|---------------|------------------|
-|--------------|---------------|---------------|-------------4-~--|
-|----6---------|------6----5~--|------6----5~--|-------------4-~--|
-|--4----7------|---4------7----|---4-----7-----|------------------|
-|--------------|---------------|---------------|--x-x-x-x---------|
-|-2------------|-2-------------|-2-------------|--x-x-x-x-x-------|
Sitting in my room all alone thinking, am I normal , then I think...

-|--------------|---------------|---------------|------------------|
-|--------------|---------------|------4~-~-----|-----------4-~-~--|
-|--------------|---------------|------4~-~-----|-----------4-~-~--|
-|--------------|---------------|---------------|------------------|
-|-x-x-x-x------|-x-x-x-x-------|---------------|--x-x-x-x---------|
-|-x-x-x-x------|-x-x-x-x-------|---------------|--x-x-x-x---------|
Im proud Im proud to be gayyyyyyyyy yeahhhhhhh
Solo then repeat measures 2 then 1
-|--------------|---------------|---------------|------------------|
-|----5-5-5-5-5-|--6/-6/-7-7-5-5|-----5^----5^--|----5^r---5^r-----|
-|--------------|---------------|---------------|------------------|
-|--------------|---------------|---------------|------------------|
-|--------------|---------------|---------------|------------------|
-|--------------|---------------|---------------|------------------|
I use the bridge pick-up on my Hondo HII with the tone set at 10 to
acheive
my maximium tone, my wah in set to 4 1/2,
on the solo i switch to my neck pick-up
Distortion on gorilla amp set to 9 I also use a worn out cord that causes
a buzz and hiss
to allow for tonal differences too acheive my custom hendrix meets saddam
sound
     
Добавлено: 26.11.2013
Вам также может быть интересно:
Другие материалы по этой песне:
  • Аккорды и текст

Страница создана 26.11.2013
http://primanota.ru/luxurious-adults/proud-im-so-proud-chords.htm
Привет, Гость.
Предлагаем пройти революционный курс по гитаре.
Подарок от PrimaNota.Ru, забирай!