PrimaNota.ru - самый крупный в мире бесплатный архив песенных текстов, аккордов, табулатур и нот


Luxurious Adults - Bend Down - таба, видео

Регистрация Запомнить меня
Войти через:  Facebook Google Twitter Vk Yandex Mail.ru

Luxurious Adults - Bend Down - таба, видео

Печатать
Просмотров: 70
SONG: Bend Down
ARTIST:The Luxurious_Adults
ALBUM: Bend Down
AUTHOR: C Seam
Tabbed by: author
TUNING: STANDARD
() very short note
/ slide
5^ r bend and release
^^^^ heavy vibrato
~ wah-wah pedtal
x palm mute

-|--------------|---------------|---------------|------------------|
-|--------------|----------4~-~-|---------------|------------------|
-|--------------|----------4~-~-|---------------|------------------|
-|---------6/-8-|---------------|----------6/-8-|-------4/-5-4-5-7-|
-|---------4/-6-|---------------|----------4/-6-|-x-x-x-4/---------|
-|-x-x-x-x------|-x-x-x-x-------|--x-x-x-x------|-x-x-x------------|
Woke up, got outta bed....

-|--------------|---------------|---------------|------------------|
-|--------------|----------4~-~-|---------------|------------------|
-|--------------|----------4~-~-|---------------|------------------|
-|---------6/-8-|---------------|---------6/--8-|----4-5-4-5-7~~~--|
-|---------4/-6-|---------------|---------4/--6-|------------------|
-|-x-x-x-x------|-x-x-x-x-------|x-x-x-x--------|-xx---------------|
Got my rattle-snake boots..
-|--------------|---------------|-1-1----1~-----|-1-1-----1~~~-----|
-|--------------|---------------|-1-1----1~-----|-1-1-----1~~~-----|
-|-------6/-8-8-|---------------|-2-0--2--------|-0-2--2-----------|
-|-------4/-6-6-|----4-5-4-5-7~-|-3-3--3--------|-3-3--3-----------|
-|-x-x-x--------|---------------|---------------|------------------|
-|-x-x-x--------|-xx------------|---------------|------------------|
dont drink beer.... (chorus, turn round ,bend down etc...)

-|--------------|--------4~~/6--|-1-1----1~-----|-1-1----1~~~------|
-|--------------|--------4~~/6--|-1-1----1~-----|-1-1----1~~~------|
-|--------------|---------------|-2-0--2--------|-0-2--2-----------|
-|--------6/-8--|---------------|-3-3--3--------|-3-3--3-----------|
-|-x-x-x--4/-6--|---------------|---------------|------------------|
-|-x-x-x--------|-xx------------|---------------|------------------|
people always calling me.... (chorus..............................)
repeat measure 1 then solo....

Guitar solo
-|------------------5-~-~--x----|-5-~-~--x---5-----24-19-22-17--| repeat
-|-------------------------x--4-|---------x-----------19--17-22-| twice
-|------(12^)14-~-~-~------x-6--|-------x-----------------------|
-|-----14-----------------------|-------------4^^^^-------------|
-|--16--------------------------|-------------------------------|
-|------------------------------|-------------------------------|
repeat measures 1 and 3 then 1 and 4
very tricky solo i recommend you practice slowy at 1st
I use the bridge pick-up on my Hondo HII with the tone set at 3 to
acheive
my tone, my wah in set to 4 1/2, on the solo i switch to my neck pick-up
Distortion on gorilla amp set to 9
     
Добавлено: 30.11.2013
Вам также может быть интересно:
Другие материалы по этой песне:
  • Аккорды и текст

Страница создана 30.11.2013
http://primanota.ru/luxurious-adults/bend-down-chords.htm
Привет, Гость.
Предлагаем пройти революционный курс по гитаре.
Подарок от PrimaNota.Ru, забирай!