PrimaNota.ru - самый крупный в мире бесплатный архив песенных текстов, аккордов, табулатур и нот


Luxtorpeda - Wilki Dwa - таба, видео

Регистрация Запомнить меня
Войти через:  Facebook Google Twitter Vk Yandex Mail.ru

Luxtorpeda - Wilki Dwa - таба, видео

Печатать
Просмотров: 96
Уроки эстрадного вокала в Санкт-Петербурге
Tab by Mashtre  mashtre@gmail.com

Band site: http://www.luxtorpeda.net/

Wilki Dwa-Luxtorpeda

Strój/tuning: Drop C

~ - vibrato
* - flazolet
^ - podciagniecie/bend
1 - Gitara 1
2 - Gitara 2

Intro: 

1
E|--------------------------|
B|--------------------------|
G|--7---------7----7----7---|
D|--7-------7----7----7-----|
A|--5-----5----5----5-------|
E|--0---0----0----0---------|

2)
E|--------------------------------------------------------------|
B|--------------------------------------------------------------|
G|--12h14-12h14~--12h14-12h14~--12h14*-12h14*~--12h14-12h14~----|
D|--------------------------------------------------------------|
A|--------------------------------------------------------------|
E|--------------------------------------------------------------|

Zwrotka:
1       i 2
E|----------------------------------------------------------------------|
B|----------------------------------------------------------------------|
G|----------------------------------------------------------------------|
D|-15-15-15-x-14---------------------10-10-10-x-12----------------------|
A|-12-12-12-x-10--10-12-10-13-12-10--7--7--7--x-8---8-10-8-12-12-10-----|
E|-12-12-12-x-10--10-10-10-10-10-10--7--7--7--x-8---8-8--8-8--8--8------|

E|----------------------------------------------------------------------|
B|----------------------------------------------------------------------|
G|--------------------------------------------------------------10~-----|
D|-15-15-15-x-14---------------------10-10-10-x-12--------10-12---------|
A|-12-12-12-x-10--10-12-10-13-12-10--7--7--7--x-8---10/12---------------|
E|-12-12-12-x-10--10-10-10-10-10-10--7--7--7--x-8-----------------------|

Refren: (podkład po solo)
1 i 2
E|--------------------------|-----|---------------------------|
B|--------------------------|-----|---------------------------|
G|--------------------------|-----|---------------------------|
D|--------------------------| x 3-|-8--8-8-x--7--7-7-7-7-7----|
A|--5--5-5-x--8--8-8-1p0----|-----|-5--5-5-x--3--3-3-3-3-3----|
E|--0--0-0-x--8--8-8-----5/3|-----|-5--5-5-x--3--3-3-3-3-3----|
 

Wstawka (bridge?):
1 i 2
E|----------------------------------|
B|----------------------------------|
G|--7-10-15-7-15-17-14-12-14-10-9---|
D|--x-x--x--x-x--x--x--x--x--x--x---|
A|--5-8--13-5-13-15-12-10-12-8--7---|
E|----------------------------------|
Temp i rytm to juz ze sluchu latwo mozna ogarnac


Добавлено: 03.10.2013
Другие материалы по этой песне:

Страница создана 08.07.2013
http://primanota.ru/luxtorpeda/wilki-dwa-chords.htm
Привет, Гость.
Предлагаем пройти революционный курс по гитаре.
Подарок от PrimaNota.Ru, забирай!