PrimaNota.ru - самый крупный в мире бесплатный архив песенных текстов, аккордов, табулатур и нот


Luxtorpeda - Autystyczny - таба, видео

Регистрация Запомнить меня
Войти через:  Facebook Google Twitter Vk Yandex Mail.ru

Luxtorpeda - Autystyczny - таба, видео

Печатать
Просмотров: 131
Tab by Mashtre  mashtre@gmail.com

Band site: http://www.luxtorpeda.net/

Luxtorpeda - Autystyczny

1) – Litza
2) – Drezmak

Intro:

1)
E|--------------------------------------------------|
B|--------------------------------------------------|
G|-------------------------------------12----12-----|
D|-14-14-14-14-14-14-14-14-14-14-14-14----14--------| x 3
A|--------------------------------------------------|
E|--------------------------------------------------|

E|--------------------------------------------------|
B|--------------------------------------------------|
G|--------------------------------------------------|
D|-14-14-14-14-14-14-14-14s3------------------------| x 1
A|--------------------------------------------------|
E|--------------------------------------------------|

2)
E|-----------|-----------|----------------|-----------|
B|-----------|-----------|----------------|-----------|
G|-----------|-----------|----------------|-----------|
D|--9-9-9-9--|--9-9-9-9--|----------------|-----------| x 1
A|--7-7-7-7--|--7-7-7-7--|--10-10-10-10---|--7-7-3-3--|
E|-----------|-----------|--8--8--8--8----|--5-5-1-1--|

Refren z melodia:

1)
E---------------------------------|
H---------------------------------|
G-9--9--14-12-14-16---14-12-14-9--|
D---------------------------------|
A-7--7--12-10-12-14---12-10-12-7--|
E---------------------------------|

E----------------------------------|
H----------------------------------|
G-9--9--14-12-14-16---14-12-14-14--|
D----------------------------------|
A-7--7--12-10-12-14---12-10-12-14--|
E----------------------------------|

E---------------------------------|
H---------------------------------|
G-9--9--14-12-14-16---14-12-14-9--|
D---------------------------------|
A-7--7--12-10-12-14---12-10-12-7--|
E---------------------------------|

E-------------------------|-------------------------|
H-------------------------|-------------------------|
G-16-16-16-16-16-16-16-19-|-14-14-14-14-14-14-14-12-|
D-------------------------|-------------------------| calosc x 2
A-14-14-14-14-14-14-14-17-|-12-12-12-12-12-12-12-10-|
E-------------------------|-------------------------|


2)
E|-----------|-----------|---------------|-------------|
B|-----------|-----------|---------------|-------------|
G|-----------|-----------|---------------|-------------|
D|--9-9-9-9--|--9-9-9-9--|---------------|-11-11-10-10-| x 2
A|--7-7-7-7--|--7-7-7-7--|--10-10-10-10--|-9--9--8--8--|
E|-----------|-----------|--8--8--8--8---|-------------|
lub
E|-----------|-----------|----------------|-----------|
B|-----------|-----------|----------------|-----------|
G|-----------|-----------|----------------|-----------|
D|--9-9-9-9--|--9-9-9-9--|----------------|-----------| x 1
A|--7-7-7-7--|--7-7-7-7--|--10-10-10-10---|--4-4-3-3--|
E|-----------|-----------|--8--8--8--8----|--2-2-1-1--|

Zwrotka:

1)      i 2)

E|-----------|-----------|---------------|------------------------|
B|-----------|-----------|---------------|------------------------|
G|-----------|-----------|---------------|------------------------|
D|--9-9-9-9--|--9-9-9-9--|-14-14-14-14---|--14-14-14-14-(12)------| x 2 
A|--7-7-7-7--|--7-7-7-7--|-14-14-14-14---|--12-12-12-12-(10)------|
E|-----------|-----------|---------------|------------------------|

Solo z podkladem:

1)
E---------------------------------|
H---------------------------------|
G-9--9--14-12-14-16---14-12-14-9--|

E----------------------------------|
H----------------------------------|
G-9--9--14-12-14-16---14-12-14~----|

E---------------------------------|
H---------------------------------|
G-9--9--14-12-14-16---14-12-14-9--|

E-------------------------|-------------------------|
H-------------------------|-------------------------|
G-16-16-16-16-16-16-16-16-|-14----14----14----14----|

E---------------------------------|
H-12-12-11-11-12-12-17-17-15-17---| x 2
G---------------------------------|

E--------------------------------------------------|
H-17-17-15-15-12-11-17-17-15-12-11-17-17-15-12-11--| 
G--------------------------------------------------|

E-------------------|
H-------------------| 
G--11-12p11---------|
D-----------14-13---|



2)
E|-----------|-----------|---------------|-----------|
B|-----------|-----------|---------------|-----------|
G|-----------|-----------|---------------|-----------|
D|--9--------|--9--------|---------------|-----------| x 1
A|--7--------|--7--------|--10-----------|--7-7-PM---| PM - Palm Mute
E|-----------|-----------|--8------------|--5-5-PM---|

E|-----------|-----------|---------------|------------------------|
B|-----------|-----------|---------------|------------------------|
G|-----------|-----------|---------------|------------------------|
D|--9-9-9-9--|--9-9-9-9--|-14-14-14-14---|--14-14-14-14-(12)------| x 1 
A|--7-7-7-7--|--7-7-7-7--|-14-14-14-14---|--12-12-12-12-(10)------|
E|-----------|-----------|---------------|------------------------|

HANS:

1)
E---------------------------------|
H---------------------------------|
G-9--9--14-12-14-16---14-12-14-9--|
D---------------------------------|
A-7--7--12-10-12-14---12-10-12-7--|
E---------------------------------|

E----------------------------------|
H----------------------------------|
G-9--9--14-12-14-16---14-12-14-14--|
D----------------------------------|
A-7--7--12-10-12-14---12-10-12-14--|
E----------------------------------|

E---------------------------------|
H---------------------------------|
G-9--9--14-12-14-16---14-12-14-9--|
D---------------------------------|
A-7--7--12-10-12-14---12-10-12-7--|
E---------------------------------|

E-------------------------|-------------------------|
H-------------------------|-------------------------|
G-16-16-16-16-16-16-16-19-|-14-14-14-14-14-14-14-12-|
D-------------------------|-------------------------| calosc x 2
A-14-14-14-14-14-14-14-17-|-12-12-12-12-12-12-12-10-|
E-------------------------|-------------------------|

2)
E|-----------|-----------|---------------|-------------|
B|-----------|-----------|---------------|-------------|
G|-----------|-----------|---------------|-------------|
D|--9-9-9-9--|--9-9-9-9--|---------------|-11-11-10-10-| x 2
A|--7-7-7-7--|--7-7-7-7--|--10-10-10-10--|-9--9--8--8--|
E|-----------|-----------|--8--8--8--8---|-------------|
lub
E|-----------|-----------|----------------|-----------|
B|-----------|-----------|----------------|-----------|
G|-----------|-----------|----------------|-----------|
D|--9-9-9-9--|--9-9-9-9--|----------------|-----------| x 1
A|--7-7-7-7--|--7-7-7-7--|--10-10-10-10---|--4-4-3-3--|
E|-----------|-----------|--8--8--8--8----|--2-2-1-1--|

1)      i 2)

E|-----------|-----------|---------------|------------------------|
B|-----------|-----------|---------------|------------------------|
G|-----------|-----------|---------------|------------------------|
D|--9-9-9-9--|--9-9-9-9--|-14-14-14-14---|--14-14-14-14-(12)------| x 2 
A|--7-7-7-7--|--7-7-7-7--|-14-14-14-14---|--12-12-12-12-(10)------|
E|-----------|-----------|---------------|------------------------|

Добавлено: 30.09.2013
Другие материалы по этой песне:

Страница создана 22.06.2013
http://primanota.ru/luxtorpeda/autystyczny-chords.htm
Привет, Гость.
Предлагаем пройти революционный курс по гитаре.
Подарок от PrimaNota.Ru, забирай!