PrimaNota.ru - самый крупный в мире бесплатный архив песенных текстов, аккордов, табулатур и нот


Lust Of Decay - Licking Bacterial Ecstacy - таба, видео

Регистрация Запомнить меня
Войти через:  Facebook Google Twitter Vk Yandex Mail.ru

Lust Of Decay - Licking Bacterial Ecstacy - таба, видео

Печатать
Просмотров: 101
Song : LICKING BACTERIAL ECSTASY
Band : LUST OF DECAY
ALBUM : Purity Through Dismemberment


::TABULATURE LEGEND::
 " - tremolo             h - hammer on           
 ~ - vibrato             \ - slide down
 p - pull off            / - slide down
 tr - trill              ^ - pinch harmonics     
 = - sustained note      b - bend string         
 p.m. - palm muting      t - tapping  
[*] - number of times part or bar repeats

TUNING: C [C, F, Bb, eb, g, c]

[Riff 1]
|-------------------------------------------------|-
|-------------------------------------------------|-
|-------------------------------------------------|-
|-------------------7\-6--------------------------|-
|-5--4--2--4--5--4--5\-4--5--4--2--4--5--4--3--3--|-
|-3--2--0--2--3--2--------3--2--0--2--3--2--1--1--|-
  .  .  .  .  .  .        .  .  .  .  .  .  .  .

-|-------------------------------------------------|-
-|-------------------------------------------------|-
-|-------------------------------------------------|-
-|-------------------7\-6-----------------------^--|-
-|-5--4--2--4--5--4--5\-4--5--4--2--4--5--4--3--1~-|-
-|-3--2--0--2--3--2--------3--2--0--2--3--2--1-----|-
   .  .  .  .  .  .        .  .  .  .  .  .  .   

-|--------------------------------------------[x2]-|
-|-------------------------------------------------|
-|-------------------------------------------------|
-|-------------------7\-6--------------------------|
-|-5--4--2--4--5--4--5\-4--5--4--2--4--5--4--3--3--|
-|-3--2--0--2--3--2--------3--2--0--2--3--2--1--1--|
   .  .  .  .  .  .        .  .  .  .  .  .  .  .

[Riff 2]
|--------------------------------------|--------------------------------------|
|--------------------------------------|--------------------------------------|
|--------------------------------------|----------------------------------^---|
|----------------------------------5p4-|----------------------------------3~--|
|---------5p4------------------4-5-----|---------5p4------------------4-5-----|
|-3-2-0-0-----0-0-[x3]-3-2-0-0---------|-3-2-0-0-----0-0-[x3]-3-2-0-0---------|
  . . . .     . .      . . . . . .       . . . .     . .      . . . . . .

[RIFF 1]

[Riff 3 (x4)]
|---------------------------------|------------------------------------|
|---------------------------------|------------------------------------|
|---------------------------------|------------------------------------|
|---------------------------------|------------------------------------|
|---------6-------8-------9-------|-----------------------------4-3-5~-|
|-5-6-5-4---5-4-5---7-6-7---8-7-8-|-3-4-3-2-3h6p3h6-3-4-3-2-3-2--------|
  . . . . . . . . . . . . . . . .   . . . .         . . . . . . . .

[Riff 4 (x4)]
|-----------------------------|
|-----------------------------|
|-----------------------------|
|-------------------6------7--|
|-------------------4------5--|
|-3-4-3-2-3tr6--0-0----0-0----|
  . . . .       . .    . .

[Riff 5]
|--------------------------------------------------|-
|--------------------------------------------------|-
|--------------------------------------------------|-
|--------------------------------------------------|-
|-------------444444555555------------555555444444-|-
|-333333666666------------555555666666-------------|-
| ................................................ |
|--------------------------------------------------|-
|--------------------------------------------------|-
|--------------------------------------------------|-
|--------------------------------------------------|-
|-------------444444555555------------555555444444-|-
|-333333666666------------555555666666-------------|-
  ................................................

-|--------------------------------------------------|
-|--------------------------------------------------|
-|--------------------------------------------------|
-|--------------------------------------------------|
-|-------------444444555555------------555555444444-|
-|-333333666666------------555555666666-------------|
 | ................................................ |
-|--------------------------------------------------|
-|--------------------------------------------------|
-|--------------------------------------------------|
-|-------------444444555555------------555555444444-|
-|-333333666666------------555555666666-------------|
-|--------------------------------------------------|
   ................................................

[RIFF 3 (x4) */last time hold latest note/]

[Riff 6 (x8) */quick picking/]
|------------------------------|
|------------------------------|
|------------------------------|
|-5----------------------------|
|---1-1-1--5p4-1-0-4-0-4-0-4-0-|
|------------------------------|
  . . . .      . . . . . . . .

[Riff 7 (x4)]
|--------------------------------------------------|
|--------------------------------------------------|
|--------------------------------------------------|
|-------------2tr5--3tr6---------------------------|
|-5tr8--4tr7--------------66--55--7/8--66--55--7/8-|
|-------------------------44--33--5/6--44--33--5/6-|
                          ..  ..       ..  ..

[Riff 8]
|-------------------------------------------------------|
|-------------------------------------------------------|
|-------------------------------------------------------|
|---------5-4------7"..------------------5-4-----7tr11--|
|-------------5-4------6"..------------------5-4--------|
|-3-4-3-2-------------------[x3]-3-4-3-2----------------|
  . . . . . . . .                . . . . . . . .

[RIFF 7 (x4)] [RIFF 8 (x2)]

[Outro /under bass/]
|-----------------------|-----------------------|
|-----------------------|-----------------------|
|-----------------------|-----------------------|
|-----------------------|-----------------7"-6"-|
|-5----------6----------|-5----------6----------|
|-3----------4----------|-3----------4--66------|
                                        ..
[Riff 9 (x4)]                                       [ending]
|-----------------------|-----------------------| ..-----------|
|-----------------------|-----------------------| ..-----------|
|-----------------------|-----------------------| ..-----------|
|-----------------------|-----------------7"-6"-| ..-----------|
|-5----7"-6"-6----7"-6"-|-5----7"-6"-6----------| ..-5---------|
|-3--66------4--66------|-3--66------4--66------| ..-3---------|
     ..         ..           ..         ..

END OF SONG
Добавлено: 01.09.2013
Вам также может быть интересно:
Другие материалы по этой песне:
  • Аккорды и текст

Страница создана 01.09.2013
http://primanota.ru/lust-of-decay/licking-bacterial-ecstacy-chords.htm
Привет, Гость.
Предлагаем пройти революционный курс по гитаре.
Подарок от PrimaNota.Ru, забирай!