PrimaNota.ru - самый крупный в мире бесплатный архив песенных текстов, аккордов, табулатур и нот


Lust Of Decay - Arachnid Anal Infestation - таба, видео

Регистрация Запомнить меня
Войти через:  Facebook Google Twitter Vk Yandex Mail.ru

Lust Of Decay - Arachnid Anal Infestation - таба, видео

Печатать
Просмотров: 57
Song : ARACHNID ANAL INFESTATION
Band : LUST OF DECAY
ALBUM : Kingdom Of Corpses


::TABULATURE LEGEND::
 " - tremolo             h - hammer on           
 ~ - vibrato             \ - slide down
 p - pull off            / - slide down
 tr - trill              ^ - pinch harmonics     
 = - sustained note      b - bend string         
 p.m. - palm muting      t - tapping  
[*] - number of times part or bar repeats

TUNING: C [C, F, Bb, eb, g, c]

[Riff 1 */quick picking/]
|---------------------------[x4]-|---------------------------[x3]-|-
|--------------------------------|--------------------------------|-
|--------------------------------|-------------------------4~-----|-
|-------------------------4~-----|-----------------6-4------------|-
|---------2-------6-4------------|---------2----------------------|-
|-1-0-0-0---0-0-0-----0-0----000-|-1-0-0-0---0-0-0-----0-0----000-|-
| . . . . . . . . . . . .    ... | . . . . . . . . . . . .    ... |
|---------------------------[x4]-|---------------------------[x3]-|-
|--------------------------------|--------------------------------|-
|--------------------------------|--------------------------------|-
|-------------------------4~-----|-------------------------4~-----|-
|---------2-------6-4------------|---------2-------6-4------------|-
|-1-0-0-0---0-0-0-----0-0----000-|-1-0-0-0---0-0-0-----0-0----000-|-
  . . . . . . . . . . . .    ...   . . . . . . . . . . . .    ...

-|--------------------------------|
-|--------------------------------|
-|--------------------------------|
-|--------------------------------|
-|---------2-------6-4-----2--2---|
-|-1-0-0-0---0-0-0-----0-0-0--0---|
 | . . . . . . . . . . . .        |
-|--------------------------------|
-|--------------------------------|
-|--------------------------------|
-|--------------------------------|
-|---------2-------6-4-----2--2---|
-|-1-0-0-0---0-0-0-----0-0-0--0---|
   . . . . . . . . . . . .        

[Riff 2]
|---------------------------[X3]-|--------------------------[X4]--|-
|--------------------------------|--------------------------------|-
|--------------------------------|--------------------------------|-
|---3\2---------4----------------|---3\2---------4----------------|-
|---3\2-6-4--------2-2-2---------|---3\2-6-4--------2-2-^---------|-
|-0---------0-0----0-0-0---------|-0---------0-0----0-0-3~~-------|-
  .     . . . .    . . .

-|---------------------------------|
-|---------------------------------|
-|---------------------------------|
-|---3\2---------4-----------------|
-|---3\2-6-4--------2-2-2----------|
-|-0---------0-0----0-0-0------10\-|
   .     . . . .    . . .

[Riff 3 (x4)]
|-----------------------------------------|------------------------------- 
|-----------------------------------------|-------------------------------
|-----------------------------------------|-------------------------------
|-------------------------------6"..------|-------------------------------
|-7-6---7-6-6-7-6---7-6-2-6-5-5------5"..-|-7-6---7-6-6-7-6---7-6-2-6-5-5-
|-5-4-0-5-4-4-----7-5-4-0-4-3-3-----------|-5-4-0-5-4-4-----7-5-4-0-4-3-3-
  . . . . . . . . . . . . . . .             . . . . . . . . . . . . . . .

---------------------|
---------------------|
----------------8"..-|
-6"..------7"..------|
------5"..-----------|
---------------------|

[Riff 4]
|--------------------------[x3]-|---------------------------[x5]-|-
|-------------------------------|--------------------------------|-
|-------------------------------|--------------------------------|-
|---------9\8-------------------|---------9\8--------------------|-
|-7-6-2-2-7\6---6-7-6---5-6-5-5-|-7-6-2-2-7\6---6-7-6---5-6-5-^--|-
|-5-4-0-0-----0-4-5-4-0-3-4-3-3-|-5-4-0-0-----0-4-5-4-0-3-4-3-3~-|-
  . . . .     . . . . . . . . .   . . . .     . . . . . . . . 

-|-------------------------------------[x4]-|
-|------------------------------------------|
-|------------------------------------------|
-|---------9\8------------------------------|
-|-7-6-2-2-7\6---6-7-6---5-6-5--------------|
-|-5-4-0-0-----0-4-5-4-0-3-4-3--------------|
   . . . .     . . . . . . . . 

[Riff 5]                             
|----------------------------[x4]-|----------------------------[x4]-|
|---------------------------------|---------------------------------|
|---------------------------------|---------------------------------|
|-----------------3-------2-------|-----------------6-------5-------|
|-4-------3---------4-3-0---3-2-0-|-4-------3---------7-6-0---6-5-0-|
|---5-4-0---4-3-0-----------------|---5-4-0---4-3-0-----------------|
| . . . . . . . . . . . . . . . . | . . . . . . . . . . . . . . . . |
|----------------------------[x4]-|----------------------------[x4]-|
|---------------------------------|---------------------------------|
|---------------------------------|---------------------------------|
|-----------------3-------2-------|-----------------3-------2-------|
|-4-------3---------4-3-0---3-2-0-|-4-------3---------4-3-0---3-2-0-|
|---5-4-0---4-3-0-----------------|---5-4-0---4-3-0-----------------|
  . . . . . . . . . . . . . . . .   . . . . . . . . . . . . . . . . 

[Riff 6]
|-----------[x12]-|------------[x4]-|
|-----------------|-----------------|
|-----------------|-----------------|
|-----------------|-----------------|
|-2---------------|-5-----------2-0-|
|---1-0-1-3-1-4-0-|---1-0-1-3-1-----|
| . . . . . . . . | . . . . . . . . |
|-----------[x12]-|------------[x4]-|
|-----------------|-----------------|
|-----------------|-----------------|
|-----------------|-----------------|
|-2---------------|-2---------------|
|---1-0-1-3-1-4-0-|---1-0-1-3-1-4-0-|
  . . . . . . . .   . . . . . . . .

[Outro]
|-------------------------------|--------------------------------|
|-------------------------------|--------------------------------|
|-------------------------------|--------------------------------|
|-------------------------------|---------------------------^----|
|-7--6--4--3-4--7---------2tr5--|-7-6--4--3--4-3--7---------3~~--|
|-5--4--2--1-2----6-5-6-5-------|-5-4--2--1--2-1----6-5-6-5------|
  .  .  .  . .  . . . . .         . .  .  .  . .  . . . . .

[Riff 8 (x3)]
|---------------------------------|--------------------------------|
|---------------------------------|--------------------------------|
|---------------------------------|--------------------------------|
|---------------------------------|---------------------------^----|
|-7-6--4--3--4-3--7---------2tr5--|-7-6--4--3--4-3--7---------3~~--|
|-5-4--2--1--2-1----6-5-6-5-------|-5-4--2--1--2-1----6-5-6-5------|
  . .  .  .  . .  . . . . .         . .  .  .  . .  . . . . .

[RIFF 3 (x4)]

[Riff 8 (x6)]
|--------------------------|-----------------------------|
|--------------------------|-----------------------------|
|--------------------------|-----------------------------|
|--------------------------|-------------------------^---|
|-4--3--4--3--4-4-3--4--3--|-4-3-2-3-4--3--4-4-3--4--1~~-|
|-2--1--2--1--2-2-1--2--1--|-2-1-0-1-2--1--2-2-1--2------|
  .  .  .  .  . . .  .  .    . . . . .  .  . . .  .      

[Riff 9 (x2) */slow!!!!!!/]
|--------------------------|-------------------------------||
|--------------------------|-------------------------------||
|--------------------------|-------------------------------||
|--------------------------|-------------------------7--6--||
|-4--3--4--3--4-4-3--4--3--|-4-3-2-3-4-3-2-3-4-3-2-3-5--4--||
|-2--1--2--1--2-2-1--2--1--|-2-1-0-1-2-1-0-1-2-1-0-1-5--4--||
  .  .  .  .  . . .  .  .    . . . . . . . . . . . .

[RIFF 5] [RIFF 8 (x3)] [RIFF 9]

END OF SONG
Добавлено: 01.09.2013
Вам также может быть интересно:
Другие материалы по этой песне:
  • Аккорды и текст

Страница создана 01.09.2013
http://primanota.ru/lust-of-decay/arachnid-anal-infestation-chords.htm
Привет, Гость.
Предлагаем пройти революционный курс по гитаре.
Подарок от PrimaNota.Ru, забирай!