PrimaNota.ru - самый крупный в мире бесплатный архив песенных текстов, аккордов, табулатур и нот


Lush - Etheriel - текст песни, таба, видео

Регистрация Запомнить меня
Войти через:  Facebook Google Twitter Vk Yandex Mail.ru

Lush - Etheriel - текст песни, таба, видео

Печатать
Просмотров: 102
Авторы музыки: Miki Berenyi, Emma Anderson

Lush - Etheriel

Tuning: Standard



Intro/chorus: X4

   x2  x5
E|--0---0--|
B|--0---0--|
G|--1---2--|
D|--2---2--|
A|--2---2--|
E|--0---0--|



1st verse: x2

E|--3--2--0--0--|
B|--3--2--0--0--|
G|--4--3--6--8--|
D|--5--4--7--9--|
A|--5--4--7--9--|
E|--3--2--5--7--|


Pre Chorus: x2

E|--2--0---0--0--|
B|--2--0---0--0--|
G|--3--11--x--4--|
D|--4--12--9--5--|
A|--4--12--9--5--|
E|--2--10--7--3--|



2nd Verse: @1:13
                     x8 x8           
E|--3--2--0--0--3--2--0--0-----|
B|--3--2--0--0--3--2--0--0-----|
G|--4--3--6--8--4--3--6--8-----|
D|--5--4--7--9--5--4--7--9-----|
A|--5--4--7--9--5--4--7--9-----|
E|--3--2--5--7--3--2--5--7-----|


@1:23: x2 "sing to me" 
E|--0--0---|
B|--0--0---|
G|--8--9---|
D|--9--10--|
A|--9--10--|
E|--7--8---|


Back to chorus @1:33 then distortion @1:43 
   x2  x5
E|--0---0---------|
B|--0---0---------|
G|--1---2---------|
D|--2---2---------|
A|--2---2---------|
E|--0---0---------|


3nd Verse: x2 @1:54

E|--0--0--0--0--|
B|--0--0--0--0--|
G|--4--3--2--1--|
D|--5--4--3--2--|
A|--5--4--3--2--|
E|--3--2--1--0--|


Pre Chorus: x2 @2:14

E|--2--0---0--0--|
B|--2--0---0--0--|
G|--3--11--x--4--|
D|--4--12--9--5--|
A|--4--12--9--5--|
E|--2--10--7--3--|


Chorus: x4 @2:33

   x2  x5
E|--0---0--|
B|--0---0--|
G|--1---2--|
D|--2---2--|
A|--2---2--|
E|--0---0--|


@2:45: x3 "doooo do do do do"

E|--0--x--0--|
B|--0--x--0--|
G|--2--5--1--|
D|--2--5--2--|
A|--0--2--2--|
E|--x--x--0--|


End: x4

   x2  x8
E|--0---0--|
B|--0---0--|
G|--1---2--|
D|--2---2--|
A|--2---2--|
E|--0---0--|
Добавлено: 18.01.2014
Вам также может быть интересно:
Другие материалы по этой песне:
  • Аккорды и текст

Страница создана 22.05.2012
http://primanota.ru/lush/etheriel-chords.htm
Привет, Гость.
Предлагаем пройти революционный курс по гитаре.
Подарок от PrimaNota.Ru, забирай!