PrimaNota.ru - самый крупный в мире бесплатный архив песенных текстов, аккордов, табулатур и нот


Lupe Fiasco - Little Death - бас-таба, видео

Регистрация Запомнить меня
Войти через:  Facebook Google Twitter Vk Yandex Mail.ru

Lupe Fiasco - Little Death - бас-таба, видео

Печатать
Просмотров: 199
-------------------------------------------------------------------------------
                             Little Death Ft. Nikki Jean - Lupe Fiasoc
-------------------------------------------------------------------------------
Tabbed by: me

Tetsuo Youth

Tuning:STD!! (EADG)

Intro

G|---------------------------------------------------------------------------|
D|----------------------17-----18--\-----------------------------------------|
A|-------15------18-------------------------------------17-----18------------|
E|-----------------------------------------15-----18-------------------------|

G|---------------------------------------------------------------------------|
D|----------------------17-----18--\-----------------------------------------|
A|-------15------18-------------------------------------17-----18------------|
E|-----------------------------------------15-----18-------------------------|

G|---------------------------------------------------------------------------|
D|---------------------------------------------------------------------------|
A|--------------------13-14-15-----------------------------------------------|
E|-----15-----18-------------------------------------------------------------|

Verse

G|---------------------------------------------------------------------------|
D|----------------------17-----18--\-----------------------------------------|
A|-------15------18-------------------------------------17-----18------------|
E|-----------------------------------------15-----18-------------------------|

G|-----------------------------------------------|
D|----------------------17-----18--\-------------|
A|-------15------18------------------------------|
E|-----------------------------------------------|


G|---------------------------------------------------------------------------|
D|----------------------17-----18--\-----------------------------------------|
A|-------15------18-------------------------------------17-----18------------|
E|-----------------------------------------15-----18-------------------------|

G|---------------------------------------------------------------------------|
D|----------------------17-----18--\-----------------------------------------|
A|-------15------18-------------------------------------17-----18------------|
E|-----------------------------------------15-----18-------------------------|


G|---------------------------------------------------------------------------|
D|---------------------------------------------------------------------------|
A|--------------------17----15------13--h--15-13----11--10-------------------|
E|-------15-----18------------------------------------------13---------------|


G|--------------------------------------------|
D|----------------------17-----18--\----------|
A|-------15------18---------------------------|
E|--------------------------------------------|

G|---------------------------------------------------------------------------|
D|---------------------------------------------------------------------------|
A|-----------------15--/--17--\--15-------13--h--15--p--13-------------------|
E|------15---18-------------------------------------------------15---13------|

G|---------------------------------------------------------------------------|
D|----------------------17-----18--\-----------------------------------------|
A|-------15------18-------------------------------------17-----18------------|
E|-----------------------------------------15-----18-------------------------|

G|-------------------------------------------------------------------|
D|---------------17-p----------------17-p------------------17-p------|
A|------15-h-18--------------15-h-18-------------15--h--18-----------|
E|-------------------------------------------------------------------|


Chorus


G|---------------------------------------------------------------------------|
D|----------------------17-----18--\-----------------------------------------|
A|-------15------18-------------------------------------17-----18------------|
E|-----------------------------------------15-----18-------------------------|

G|---------------------------------------------------------------------------|
D|----------------------17-----18--\-----------------------------------------|
A|-------15------18-------------------------------------17-----18------------|
E|-----------------------------------------15-----18-------------------------|

G|---------------------------------------------------------------------------|
D|---------------------------------------------------------------------------|
A|--------------------13-14-15-----------------------------------------------|
E|-----15-----18-------------------------------------------------------------|

G|---------------------------------------------------------------------------|
D|----------------------17-----18--\-----------------------------------------|
A|-------15------18-------------------------------------17-----18------------|
E|-----------------------------------------15-----18-------------------------|

G|---------------------------------------------------------------------------|
D|----------------------17-----18--\-----------------------------------------|
A|-------15------18-------------------------------------17-----18------------|
E|-----------------------------------------15-----18-------------------------|

G|-----------------------------------------------------------------------------|
D|-----------------------------------------------------------------------------|
A|--------------------13-14-\--------------------------------------------------|
E|-----15-----18---------------------------------------------------------------|

| /  slide up
| \  slide down
| h  hammer-on
| p  pull-off
| ~  vibrato
| +  harmonic
| x  Mute note
===============================================================================
Добавлено: 14.07.2015
Другие материалы по этой песне:
  • Аккорды и текст

Страница создана 14.07.2015
http://primanota.ru/lupe-fiasco/little-death-chords.htm
Привет, Гость.
Предлагаем пройти революционный курс по гитаре.
Подарок от PrimaNota.Ru, забирай!