PrimaNota.ru - самый крупный в мире бесплатный архив песенных текстов, аккордов, табулатур и нот


Lunik - Waiting - таба, видео

Регистрация Запомнить меня
Войти через:  Facebook Google Twitter Vk Yandex Mail.ru

Lunik - Waiting - таба, видео

Печатать
Просмотров: 130
-------------------------------------------------------------------------------
                             WAITING - Lunik
-------------------------------------------------------------------------------
Tabbed by: käspi
Email: kg@kgmw.ch

Tuning: Standard, Capo 2

Intro:
e|---------------------------------------------------------------------------|
B|-----0-------------0-------------------------------------------------------|
G|------------0------------0------4-----1------------------------------------|
D|---2-------------2---------------------------------------------------------|
A|-0--------3----0-------3------5-----2--------------------------------------|
E|--------1------------1------3-----0----------------------------------------|

Verse 1:
Am
trembling movements of his body
F
smoking all day, all day long
G
civilisation he doesn't like it
E
but the strength to fight has gone
Am
then he's talking of the future
F
of a better nicer world
G
and his eyes begin to glitter
E
I can't believe he doesn't move

Chorus:
     Am
he's waiting for a miracle
          G
I see him waiting for so long
     F
he's dreaming of a miracle
       E
and it never ever comes

Break:
   Am              F               G               E
e|-------5---------------5---------------5---------------4-------------------|
B|---5-----5---5-----5-----5---5-----5-----5---5-----5-----5---5-------------|
G|-7---7-----7-----7---7-----7-----7---7-----7-----7---7-----7---------------|
D|---------------------------------------------------------------------------|
A|---------------------------------------------------------------------------|
E|---------------------------------------------------------------------------|

Verse 2:
Am
he's falling deeper, deeper, deeper
F
and he doesn't see the truth
G
he thinks one day it will be better
           E
I know one day it will be too late
Am
cause he waited much too long
F
and he doesn't want to wake up
G
cause his strength to fight is gone
E
and his hope is much too strong
Добавлено: 05.05.2012
Другие материалы по этой песне:
  • Аккорды и текст

Страница создана 05.05.2012
http://primanota.ru/lunik/waiting-chords.htm
Привет, Гость.
Предлагаем пройти революционный курс по гитаре.
Подарок от PrimaNota.Ru, забирай!