PrimaNota.ru - самый крупный в мире бесплатный архив песенных текстов, аккордов, табулатур и нот


Lunik - Other Side - таба, видео

Регистрация Запомнить меня
Войти через:  Facebook Google Twitter Vk Yandex Mail.ru

Lunik - Other Side - таба, видео

Печатать
Просмотров: 82
Other Side (acoustic) by Lunik
from the Album Life Is On Our Side
chords/tabs by Kaspar Giger  kg@kgmw.ch>

Other Side (acoustic)
---------------------

  a                   G
E-----------------  ------------------
B---------1-------  ---------0--------
G-----2-------2---  -----0-------0----
D---2---2---2---2-  ---0---0---0---0--
A-0---------------  ------------------
E-----------------  -3----------------

   F                  E
E-----------------  -----------------
B---------1-------  ---------0-------
G-----2-------2---  -----1-------1---
D---3---3---3---3-  ---2---2---2---2-
A-3---------------  -----------------
E-----------------  -0---------------

intro:
a a a a

verse:
a a a a G F a a

chorus:
G E G E G E a a


     
Добавлено: 13.06.2013
Другие материалы по этой песне:
  • Аккорды и текст

Страница создана 13.06.2013
http://primanota.ru/lunik/other-side-chords.htm
Привет, Гость.
Предлагаем пройти революционный курс по гитаре.
Подарок от PrimaNota.Ru, забирай!