PrimaNota.ru - самый крупный в мире бесплатный архив песенных текстов, аккордов, табулатур и нот


Lune - Bröte Dunk - таба

Регистрация Запомнить меня
Войти через:  Facebook Google Twitter Vk Yandex Mail.ru

Lune - Bröte Dunk - таба

Печатать
Просмотров: 66
Уроки эстрадного вокала в Санкт-Петербурге
-------------------------------------------------------------------------------
                             Bröte dunk - Lune
-------------------------------------------------------------------------------
Tabbed by: Lune
E-mail: lunis98@outlook.com

Tuning: Swag

e|-------------0---------------3---------------0---------------0-------------|
B|-------------1---------------0---------------0---------------1-------------|
G|-------------0---------------0---------------0---------------2-------------|
D|---------------------------------------------------------2-----------------|
A|---------3-------------------------------2---------------------------------|
E|-------------------------3-------------------------------------------------|



************************************

| /   slide up
| \   slide down
| h   hammer-on
| p   pull-off
| ~   vibrato
| +   harmonic
| x   Mute note
| b   Bend
| pb  Pre-bend
| br  Bend release
| pbr Pre-bend release
| brb Bend release bend

************************************
Добавлено: 05.12.2015
Вам также может быть интересно:
Другие материалы по этой песне:
  • Аккорды и текст

Страница создана 05.12.2015
http://primanota.ru/lune/brote-dunk-chords.htm
Привет, Гость.
Предлагаем пройти революционный курс по гитаре.
Подарок от PrimaNota.Ru, забирай!