PrimaNota.ru - самый крупный в мире бесплатный архив песенных текстов, аккордов, табулатур и нот


Luna - Freakin and peakin - таба, видео

Регистрация Запомнить меня
Войти через:  Facebook Google Twitter Vk Yandex Mail.ru

Luna - Freakin and peakin - таба, видео

Печатать
Просмотров: 71
Уроки эстрадного вокала в Санкт-Петербурге
Авторы музыки: Luna



Song: Freakin' and Peakin'
Artist: Luna (written by Dean Wareham)
Album: Penthouse

Song Tabbed by: jcdenton@jcdenton40.com

This is just the lead part during the three solos. Any corrections or suggestions welcome.

/ = slide up
 = slide down
h = hammer on
p = pull off

0:00 to 0:14

----------------------------------------------------------------------------------------------
----------------------------------------------------9-11-11/1211-9---------------------------
-8/10-108------8/10-108------8/10-108-------8/11-----------------10^-10-107-------6-8-6---
-----------6-8------------6-8------------6-8------------------------------------6-6/8---------
----------------------------------------------------------------------------------------------
----------------------------------------------------------------------------------------------

0:14 to 0:28

----------------------------------------------------------------------------------------------
-------------6-7-7/9-9-9-9-9/11-9-11-11/12-12-9-12-11-9-9------------7/9-9-9-6-9-6/76--------
---------6-6----------------------------------------------10-8-6-6---------------------6-6----
-----6-8--------------------------------------------------------------------------------------
-4-6------------------------------------------------------------------------------------------
----------------------------------------------------------------------------------------------

1:26 to 1:36

----------------------------------------------------------------------------------------------
------9-9h11-11/1211-9-11--11-9-11/12-12/14-9-14-11/1211-9-11/12-9-11-9----9----------------
-8/11---------------------------------------------------------------------10---10-8-6-8-6-----
----------------------------------------------------------------------------------------------
----------------------------------------------------------------------------------------------
----------------------------------------------------------------------------------------------

1:36 to 1:45

----------------------------------------------------------------------------------------------
---------------------6-6-7-9-9-6------9-9-9-7-6-----------------------------------------------
-----------------6-6-------------6--6-----------8-6-------------------------------------------
---------6/8-6-8------------------------------------------------------------------------------
-4/6-6/8--------------------------------------------------------------------------------------
----------------------------------------------------------------------------------------------

2:14 to 2:35

--------------------------------------------------------------------------------------------------------------------------------------------
-/6-6-6/96-----------9-9-9----9/11-11-9-11/12-12/14-14-14-14-14-14~-1412-12h14p12-11/1211-9-------9-------------7/9-9-9-9-6-9-6/7--------
------------8-6--6/10-------10-----------------------------------------------------------------10-10---10-108-6---------------------6-8-6--
--------------------------------------------------------------------------------------------------------------------------------------------
--------------------------------------------------------------------------------------------------------------------------------------------
--------------------------------------------------------------------------------------------------------------------------------------------

Добавлено: 21.01.2014
Другие материалы по этой песне:
  • Аккорды и текст

Страница создана 21.01.2014
http://primanota.ru/luna/freakin-and-peakin-chords.htm
Привет, Гость.
Предлагаем пройти революционный курс по гитаре.
Подарок от PrimaNota.Ru, забирай!