PrimaNota.ru - самый крупный в мире бесплатный архив песенных текстов, аккордов, табулатур и нот


Luna - Bobby Peru - таба, видео

Регистрация Запомнить меня
Войти через:  Facebook Google Twitter Vk Yandex Mail.ru

Luna - Bobby Peru - таба, видео

Печатать
Просмотров: 50
-------------------------------------------------------------------------------
                        Bobby Peru - Luna
-------------------------------------------------------------------------------
Tabbed by: marceloargh
Tuning: standard (EADGBe)



Intro:

Guitar 1
e|--10-----------------------------------------------------------------------|
B|------10-/12-\10-\8---------------10---------------------------------------|
G|--------------------------------------9-/-11-\9-\-7------------------------|
D|---------------------------------------------------------------------------|
A|---------------------------------------------------------------------------|
E|---------------------------------------------------------------------------|

Guitar 2
e|--3-------------------------------2----------------------------------------|
B|--3-------------------------------3----------------------------------------|
G|--0-------------------------------2----------------------------------------|
D|--0-------------------------------0----------------------------------------|
A|--2------------------------------------------------------------------------|
E|--3------------------------------------------------------------------------|




Guitar 1
e|---------------------------------------------------------------------------|
B|---------------------------------------------------------------------------|
G|--4---5-p-4---5-p-4---5-p-4-----------------------0------------------------|
D|------------------------------7---5-------5b6r5----------------------------|
A|--------------------------------------7------------------------------------|
E|---------------------------------------------------------------------------|

Guitar 2
e|--0-------------------------------0----------------------------------------|
B|--1-------------------------------1----------------------------------------|
G|--2-------------------------------0----------------------------------------|
D|--2-------------------------------2----------------------------------------|
A|--0-------------------------------3----------------------------------------|
E|---------------------------------(3)---------------------------------------|




Guitar 1
e|--10-----------------------------------------------------------------------|
B|------10-/12-\10-\8---------------10---------------------------------------|
G|--------------------------------------9-/-11-\9-\-7------------------------|
D|---------------------------------------------------------------------------|
A|---------------------------------------------------------------------------|
E|---------------------------------------------------------------------------|

Guitar 2
e|--3-------------------------------2----------------------------------------|
B|--3-------------------------------3----------------------------------------|
G|--0-------------------------------2----------------------------------------|
D|--0---------------------------0---0----------------------------------------|
A|--2--------------------------------------------------------------0---------|
E|--3------------------------------------------------------------------------|




Guitar 1
e|---------------------------------------------------------------------------|
B|---------------------------------------------------------------------------|
G|--4h5p4--------------------------------------------------------------------|
D|--------------------------7---5---5----------------------------------------|
A|---------------------------------------------------------------------------|
E|---------------------------------------------------------------------------|

Guitar 2
e|--0-------------------------------0----------------------------------------|
B|--1-------------------------------1----------------------------------------|
G|--2-------------------------------0----------------------------------------|
D|--2-------------------------------2----------------------------------------|
A|--0---------------------------3---3----------------------------------------|
E|---------------------------------(3)-----------------------------3---------|






Verse:

Guitar 1
e|------------------3-------------------------------2------------------------|
B|--------------------------3-------------------------------3----------------|
G|------------------------------0---2---------------------------2------------|
D|----------------------------------0----------------------------------------|
A|--2------------------------------------------------------------------------|
E|--3------------------------------------------------------------------------|

Guitar 2
e|--3-----------------------3---0---2-----------------------2---0------------|
B|--3-----------------------3---0---3-----------------------3---0------------|
G|--0-----------------------0---0---2-----------------------2---0------------|
D|--0-----------------------0---0---0-----------------------0---0------------|
A|--2-----------------------2---0--------------------------------------------|
E|--3-----------------------3---0--------------------------------------------|




Guitar 1
e|------------------0-------------------------------0------------------------|
B|--------------------------1-------------------------------1----------------|
G|------------------------------2-------------------------------0------------|
D|--2-------------------------------2----------------------------------------|
A|--0-------------------------------3----------------------------------------|
E|---------------------------------------------------------------------------|

Guitar 2
e|--0-----------------------0---0---0-----------------------0---0------------|
B|--1-----------------------1---0---1-----------------------1---0------------|
G|--2-----------------------2---0---0-----------------------0---0------------|
D|--2-----------------------2---0---2-----------------------2---0------------|
A|--0-----------------------0---0---3-----------------------3---0------------|
E|---------------------------------(3)---------------------(3)--0------------|






Chorus:

Guitar 1
e|---------------3------------------------------2----------------------------|
B|---------------3------3-------0---3-----------3-------3--------------------|
G|--------------------------0---0---2-----------------------2---0------------|
D|--0---------------------------0---0---------------------------0------------|
A|--2-----------------------------------------------------------0------------|
E|--3------------------------------------------------------------------------|

Guitar 2
e|--3------------3------3---3---0---2-----------3-------2---2---0------------|
B|--3------------3------3---3---0---3-----------2-------3---3---0------------|
G|--0------------0------0---0---0---2-----------3-------2---2---0------------|
D|--0------------0------0---0---0---0-----------0-------0---0---0------------|
A|--2------------2------2---2---0--------------------------------------------|
E|--3------------3------3---3---0--------------------------------------------|




Guitar 1
e|--------------0-------------------------------0----------------------------|
B|--------------1-------1-----------------------1-------1--------------------|
G|--2-----------------------2---0---0-----------------------0----------------|
D|--2---------------------------0---2---------------------------0------------|
A|--0---------------------------0---3---------------------------0------------|
E|--------------------------------------------------------------0------------|

Guitar 2
e|--0-----------0-------0---0---0---0-----------0-------0---0---0------------|
B|--1-----------1-------1---1---0---1-----------1-------1---1---0------------|
G|--2-----------2-------2---2---0---0-----------0-------0---0---0------------|
D|--2-----------2-------2---2---0---2-----------2-------2---2---0------------|
A|--0-----------0-------0---0---0---3-----------3-------3---3---0------------|
E|---------------------------------(3)---------(3)-----(3)-(3)--0------------|






Solo: (guitar 2 is the same as chorus)

Guitar 1  (2:33)
e|---------------------------------------------------------------------------|
B|--12--------13---12--------13---12-----------------------------------------|
G|-----------------------------------------------------12-----14--12---------|
D|--------------------------------------------12h14--------------------------|
A|---------------------------------------------------------------------------|
E|---------------------------------------------------------------------------|

(2:42)
e|---------------------------------------------------------------------------|
B|--12-13----12-------------15-13----12-------------------------13-12--------|
G|-----------------14----12----------------14-----12------14-------------12--|
D|---------------------------------------------------------------------------|
A|---------------------------------------------------------------------------|
E|---------------------------------------------------------------------------|

(2:51)
e|---------------------------------------------------------------------------|
B|--15-13-12-13-12----------12-13-12-----------------------------------------|
G|-----------------14-12-14----------14------12------------------------------|
D|---------------------------------------------------------------------------|
A|---------------------------------------------------------------------------|
E|---------------------------------------------------------------------------|

(2:55)
e|---------------------------------------------------------------------------|
B|--12-13-12-----------------------------------------------------------------|
G|-----------14-12----------12-14-12-14------12------------------------------|
D|-----------------14-12-14--------------------------------------------------|
A|---------------------------------------------------------------------------|
E|---------------------------------------------------------------------------|

(3:00)
e|---------------------------------------------------------------------------|
B|---------------------------15-13----12-------------------------------------|
G|-----------12----14---------------------------14----12---------------------|
D|--12h14--------------------------------------------------------------------|
A|---------------------------------------------------------------------------|
E|---------------------------------------------------------------------------|



song order:
intro
verse   x4
chorus  x2
intro   (just the second half)
verse   x4
chorus  x4
solo    (guitar 2 plays chorus 4x)
verse   x3


note: in the last verse before second chorus, struming on guitar 1 changes
slightly, but it's still playing individual notes from the same chords.


************************************

| /   slide up
| \   slide down
| h   hammer-on
| p   pull-off
| ~   vibrato
| +   harmonic
| x   Mute note
| b   Bend
| pb  Pre-bend
| br  Bend release
| pbr Pre-bend release
| brb Bend release bend

************************************
Добавлено: 22.12.2015
Другие материалы по этой песне:
  • Аккорды и текст

Страница создана 22.12.2015
http://primanota.ru/luna/bobby-peru-chords.htm
Привет, Гость.
Предлагаем пройти революционный курс по гитаре.
Подарок от PrimaNota.Ru, забирай!