PrimaNota.ru - самый крупный в мире бесплатный архив песенных текстов, аккордов, табулатур и нот


Luna Sea - Slave - текст песни, бас-таба, видео

Регистрация Запомнить меня
Войти через:  Facebook Google Twitter Vk Yandex Mail.ru

Luna Sea - Slave - текст песни, бас-таба, видео

Печатать
Просмотров: 163
Авторы музыки: J
Авторы текста: RYUICHI
-----------------------------------------------------------------
SLAVE - LUNA SEA
-----------------------------------------------------------------

Tabbed By: truti
e-mail: etoilebr@gmail.com

Tuning: EADG

Intro: (0:09) [they are 12s(twelves), not 1 and 2s]
G|-----------12x----------------------------------------------------|
D|--------12x-------------------------------------------------------|
A|-----12x--------------7--------5h7--------1/7-77-66-55-44-3-33333-|
E|--12x-----------0--0-----0--0-------0--0--------------------------|

G|---------------------------------------------------------------|
D|---------------------------------------------------------------|
A|--2-33333-2-33333----------------------------------------------|
E|-------------------30-30-3-30----------------------------------|

G|---------------------------------------------------------------|
D|---------------------------------------------------------------|
A|--------7--------5h7-------1/7-77-55-1010-99-3-33333-----------|
E|-----0-----0--0-------0--0-------------------------------------|

G|---------------------------------------------------------------|
D|---------------------------------------------------------------|
A|--2-33333-2-33333----------------------------------------------|
E|-------------------30-30-3-30----------------------------------|

Verse 1: Yadotta... (0:28) [they are 10s(tens), not 1 and 0s]
G|---------------------------------------------------------------|
D|---------------------------------------------------------------|
A|---------------------------------------------------------------| 2x
E|-0000000000000000-22446688888888888888888--30-30-3-30----------|

G|---------------------------------------------------------------|
D|---------------------------------------------------------------|
A|-------------------7--------5h7--------1/7-77-66-55-44-3-33333-|
E|-------------0--0-----0--0-------0--0--------------------------|

G|---------------------------------------------------------------|
D|---------------------------------------------------------------|
A|--2-33333-2-33333----------------------------------------------|
E|-------------------30-30-3-30----------------------------------|

G|---------------------------------------------------------------|
D|---------------------------------------------------------------|
A|--------7--------5h7-------1/7-77-55-1010-99-3-33333-----------|
E|-----0-----0--0-------0--0-------------------------------------|

G|---------------------------------------------------------------|
D|---------------------------------------------------------------|
A|--2-33333-2-33333----------------------------------------------|
E|-------------------30-30-3-30----------------------------------|

Verse 2: Tobenai... (1:05) 
G|---------------------------------------------------------------|
D|---------------------------------------------------------------|
A|---------------------------------------------------------------| 
E|-0000000000000000-22446688888888888888888--30-30-3-30----------|

G|---------------------------------------------------------------|
D|---------------------------------------------------------------|
A|---------------------0022333333333333333/12--------------------|
E|-0000000000000000-33-------------------------------------------|


Pre-Chorus: Odorasareru... (1:22)
G|-----------------------------------------------------------------|
D|-----------------------------------------------------------------|
A|-3333333333--5---------7--------7--3333333-------------7-------7-|
E|----------------00000----00000-------------3-2-3-00000---00000---|

G|---------------------------------------------------------------|
D|---------------------------------------------------------------|
A|-3333333333--5---------7--------7--333333322222334455----------|
E|----------------00000----00000---------------------------------|

Chorus:  Miwasureteiru... (1:40) [they are 10s(tens) and 12(twelves)]
G|---------------------------------------------------------------|
D|---------------------------------------------------------------|
A|--7777777--1010-99-1212-10101010101010-99-88-55----------------|
E|---------------------------------------------------------------|

G|---------------------------------------------------------------|
D|----------------------------------------1010-99----------------|
A|--7777777--1010-99-1212-10101010101010---------1010------------|
E|---------------------------------------------------------------|

G|---------------------------------------------------------------|
D|---------------------------------------------------------------|
A|--7777777--1010-99-1212-10101010101010-99-88-55----------------|
E|---------------------------------------------------------------|

G|---------------------------------------------------------------|
D|---------------------------------------------------------------|
A|--7777777--1010-99-1212-10101010101010-99-88/0-----------------|
E|---------------------------------------------------------------|

Solo: (1:59)
G|---------------------------------------------------------------|
D|---------------------------------------------------------------|
A|---------------------------------------------------------------|
E|--000000000000000000--111111111111111111111--------------------|

G|---------------------------------------------------------------|
D|---------------------------------------------------------------|
A|----------------------------------------------3~----3/7--------|
E|--000000000000000000--1111111111111111111-1-2------------------|

Pre-Chorus: Odorasareta... (2:17)
G|-----------------------------------------------------------------|
D|-----------------------------------------------------------------|
A|-3333333333--5---------7--------7--3333333-------------7-------7-|
E|----------------00000----00000-------------3-2-3-00000---00000---|

G|---------------------------------------------------------------|
D|---------------------------------------------------------------|
A|-3333333333--5---------7--------7--333333322222334455----------|
E|----------------00000----00000---------------------------------|

Chorus: Miwasureteita... (2:35) [they are 10s(tens) and 12(twelves)]
G|---------------------------------------------------------------|
D|---------------------------------------------------------------|
A|--7777777--1010-99-1212-10101010101010-99-88-55----------------|
E|---------------------------------------------------------------|

G|---------------------------------------------------------------|
D|----------------------------------------1010-99----------------|
A|--7777777--1010-99-1212-10101010101010---------1010------------|
E|---------------------------------------------------------------|

G|---------------------------------------------------------------|
D|---------------------------------------------------------------|
A|--7777777--1010-99-1212-10101010101010-99-88-55----------------|
E|---------------------------------------------------------------|

G|---------------------------------------------------------------|
D|---------------------------------------------------------------|
A|--7777777--1010-99-1212-10101010101010-99-1010-1212------------|
E|---------------------------------------------------------------|

G|---------------------------------------------------------------|
D|---------------------------------------------------------------|
A|--77777777777--101010101010101010-99-88-55---------------------|
E|---------------------------------------------------------------|

G|---------------------------------------------------------------|
D|----------------------------------------1010-99----------------|
A|--7777777--1010-99-1212-10101010101010---------1010------------|
E|---------------------------------------------------------------|

G|---------------------------------------------------------------|
D|---------------------------------------------------------------|
A|--7777777--1010-99-1212-10101010101010-99-88-55----------------|
E|---------------------------------------------------------------|

G|---------------------------------------------------------------|
D|----------------------------9-10-12-15-------------------------|
A|--7777777--1010-99-1212-10-------------------------------------|
E|---------------------------------------------------------------|

Outro: (3:11)
G|---------------------------------------------------------------|
D|---------------------------------------------------------------|
A|-------------------7--------5h7--------1/7-77-66-55-44-3-33333-|
E|-------------0--0-----0--0-------0--0--------------------------|

G|---------------------------------------------------------------|
D|---------------------------------------------------------------|
A|--2-33333-2-33333----------------------------------------------|
E|-------------------30-30-3-30----------------------------------|

G|---------------------------------------------------------------|
D|---------------------------------------------------------------|
A|--------7--------5h7-------1/7-77-55-1010-99-3-33333-----------|
E|-----0-----0--0-------0--0-------------------------------------|

G|---------------------------------------------------------------|
D|---------------------------------------------------------------|
A|--2-33333-2-33333----------------------------------------------|
E|-------------------30-30-3-30----------------------------------|
Добавлено: 21.02.2012
Другие материалы по этой песне:

Страница создана 21.02.2012
http://primanota.ru/luna-sea/slave-chords.htm
Привет, Гость.
Предлагаем пройти революционный курс по гитаре.
Подарок от PrimaNota.Ru, забирай!