PrimaNota.ru - самый крупный в мире бесплатный архив песенных текстов, аккордов, табулатур и нот


Luna Sea - Love Me - таба, бас-таба, видео

Регистрация Запомнить меня
Войти через:  Facebook Google Twitter Vk Yandex Mail.ru

Luna Sea - Love Me - таба, бас-таба, видео

Печатать
Просмотров: 151
Авторы музыки: LUNA SEA
Авторы текста: LUNA SEA
Luna Sea - Love Me

Tabbed by request for a friend, this isn't from
a band score, guitar pro, or midi import.

I think this is pretty damn accurate, hit me up if
you have any questions. www.myspace.com/paulf_

INTRO
Inoran
----------------|-----------------|----------------|-----------------|
----------------|-----------------|----------------|-----------------|
-2---2----2-2-2-|-5---5-----5-5-5-|-2---2----2-2-2-|-5---5-----5-5-5-|
-2---2----2-2-2-|-7---7-----7-7-7-|-2---2----2-2-2-|-7---7-----7-7-7-|
-0---0----0-0-0-|-0---0-----0-0-0-|-0---0----0-0-0-|-0---0-----0-0-0-|
----------------|-----------------|----------------|-----------------|

----------------|-----------------|----------------|-----------------|
----------------|-----------------|----------------|-----------------|
-2---2----2-2-2-|-5---5-----5-5-5-|-2---2----2-2-2-|-0---0-----0-0-0-|
-2---2----2-2-2-|-7---7-----7-7-7-|-2---2----2-2-2-|-2---2-----2-2-2-|
-0---0----0-0-0-|-0---0-----0-0-0-|-0---0----0-0-0-|-2---2-----2-2-2-|
----------------|-----------------|----------------|-0---0-----0-0-0-|

INTRO
Sugizo
----------------|-----------------|----------------|-----------------|
----------------|-----------------|----------------|-----------------|
-2--------2-2-2-|-4--4-----5---7--|-2--------2-2-2-|-4--4-----5---7--|
-2--------2-2-2-|-5--5--x--7---9--|-2--------2-2-2-|-5--5--x--7---9--|
-0--x-x-x-0-0-0-|-0--0--x--0---0--|-0--x-x-x-0-0-0-|-0--0--x--0---0--|
----------------|-----------------|----------------|-----------------|

----------------|-----------------|----------------|----------0------|
----------------|-----------------|----------------|---------0-------|
-2--------2-2-2-|-4--4-----5---7--|----------4--5--|--------0--------|
-2--------2-2-2-|-5--5--x--7---9--|-9--9-----5--7--|-------2---------|
-0--x-x-x-0-0-0-|-0--0--x--0---0--|-10-10--x-0--0--|------2----------|
----------------|-----------------|----------------|-0---0-----------|

VERSE
Inoran
---------0------|----------------|----------------|----------------|
------------1---|------------3---|-5--s--3--------|---------0------|
----------------|-------(0)------|----------------|------4---------|
--3-------------|---5------------|-----------2----|--3-------------|x4
----------------|----------------|----------------|----------------|
----------------|----------------|----------------|----------------|
then
---------0------|----------------|
------------1---|------------3---|
----------------|-------(0)------|
--3-------------|---5------------|
----------------|----------------|
----------------|----------------|

VERSE
Sugizo
-0---0---0-0-0--|-0---0---0-0-0--|----------------|----------------|
-1---1---1-1-1--|-3---3---3-3-3--|-0---0---0-0-0--|-1---1---1-1-1--|
-2---2---2-2-2--|-4---4---4-4-4--|-0---0---0-0-0--|-2---2---2-2-2--|
-3---3---3-3-3--|-5---5---5-5-5--|-2---2---2-2-2--|-3---3---3-3-3--|x2
-3---3---3-3-3--|-5---5---5-5-5--|-2---2---2-2-2--|-3---3---3-3-3--|
----------------|----------------|-0---0---0-0-0--|----------------|
then
----------------|----------------|----------------|----------------|
----------------|----------------|-0---0---0-0-0--|-1---1---1-1-1--|
-2--------2-2-2-|-4--4-----5---7-|-0---0---0-0-0--|-2---2---2-2-2--|
-2--------2-2-2-|-5--5--x--7---9-|-2---2---2-2-2--|-3---3---3-3-3--|
-0--x-x-x-0-0-0-|-0--0--x--0---0-|-2---2---2-2-2--|-3---3---3-3-3--|
----------------|----------------|-0---0---0-0-0--|----------------|

----------------|-----------------|
----------------|-----------------|
-2--------2-2-2-|-4--4-----5---7--|
-2--------2-2-2-|-5--5--x--7---9--|
-0--x-x-x-0-0-0-|-0--0--x--0---0--|
----------------|-----------------|


CHORUS
Inoran
-0--0--0-0-0--0--0-|-0--0--0-0-0--0--0-|-0--0--0-0-0--0--0-|-------------------|
-1--1--1-1-1--0--1-|-1--1--1-1-1--0--1-|-0--0--0-0-0--0--0-|-0--0--0-0-0--0--0-|
-2--2--2-2-2--2--2-|-0--0--0-0-0--0--0-|-0--0--0-0-0--0--0-|-0--0--0-0-0--0--0-|
-3--3--3-3-3--3--3-|-2--2--2-2-2--2--2-|-2--2--2-2-2--2--2-|-0--0--0-0-0--0--0-|
-3--3--3-3-3--3--3-|-0--0--0-0-0--0--0-|-2--2--2-2-2--2--2-|-2--2--2-2-2--2--2-|
-------------------|-------------------|-0--0--0-0-0--0--0-|-3--3--3-3-3--3--3-|

Sugizo
-------------------|---------------------|-------------------|-------------------|
-0--0--0-----------|---------------------|-0--0--0-----------|-------------------|
-3--2--2------4--5-|-12--12--12----4--5--|-0--0--0------4--5-|-12--12--12--------|
-3--3--3------x--x-|-x---x---x-----x--x--|-2--2--2------x--x-|-x---x---x---------|but...>>
-3--3--3------2--3-|-10--10--10----2--2--|-2--2--2------2--3-|-10--10--10--------|
-1--1--1-----------|---------------------|-0--0--0-----------|-------------------|

(on the last bar of the chorus, Sugizo ends with)
--------------------------|
--------------------------|
-12---10---9----7----5-4--|
-x--x-x--x-x--x-x--x-x-x--|
-10---8----7----5----3-2--|
--------------------------|


SOLO
Inoran
(Chords | F | G | A| A | F | Em | A | A |)

Sugizo
----------------------|----------------------|----------------------|------------------------|
-15--13--12--15-13-12-|-15--13--12--15-13-12-|-12--12--13--17~~~~~~~|-12--12--13--17~~~~~~~--|
----------------------|----------------------|----------------------|------------------------|
----------------------|----------------------|----------------------|------------------------|
----------------------|----------------------|----------------------|------------------------|
----------------------|----------------------|----------------------|------------------------|

----------------------|----------------------|-10-------------------|-s15--s17-------------|
-15--13--12--15-13-12-|-15--17--8~~~~~-------|----12--12---10-12-13-|-----------s15--s17---|
----------------------|----------------------|----------------------|----------------------|
----------------------|----------------------|----------------------|----------------------|
----------------------|----------------------|----------------------|----------------------|
----------------------|----------------------|----------------------|----------------------|


Post-Solo Chorus: Sugizo plays the chord changes (in parenthesis)
while Inoran plays the three-note melody

-(0)-------3---|-(0)-------3---|-(0)-------3---|-(0)--------3---|
-(1)-0--1------|-(1)-0--1------|-(0)-0--1------|-(0)--0--1------|
-(2)-----------|-(0)-----------|-(0)-----------|-(0)------------|
-(3)-----------|-(2)-----------|-(2)-----------|-(0)------------|
-(3)-----------|-(0)-----------|-(2)-----------|-(2)------------|
---------------|---------------|-(0)-----------|-(3)------------|

F :x33210
G :x55430
Em:022000
Fmaj13:x33200
Am7:x02010
A7sus2:x02000
Добавлено: 21.02.2012
Другие материалы по этой песне:
  • Аккорды и текст

Страница создана 21.02.2012
http://primanota.ru/luna-sea/love-me-chords.htm
Привет, Гость.
Предлагаем пройти революционный курс по гитаре.
Подарок от PrimaNota.Ru, забирай!