PrimaNota.ru - самый крупный в мире бесплатный архив песенных текстов, аккордов, табулатур и нот


Luna Sea - In Silence - текст песни, бас-таба, видео

Регистрация Запомнить меня
Войти через:  Facebook Google Twitter Vk Yandex Mail.ru

Luna Sea - In Silence - текст песни, бас-таба, видео

Печатать
Просмотров: 165
Уроки эстрадного вокала в Санкт-Петербурге
Авторы музыки: LUNA SEA
Авторы текста: LUNA SEA
-----------------------------------------------------------------
IN SILENCE - LUNA SEA
-----------------------------------------------------------------

Tabbed By : truti
e-mail: etoilebr@gmail.com

Tuning: EADG

Intro: Daiteta... (1:06)
G|--------------------|
D|--------------------|
A|--------------------|
E|-0~-----3--3--3--3--|

Chorus: In Silence... (1:10) 
G|---------------------------------------------------------------|
D|---------------------------------------------------------------|
A|------------------333333333333-888888888888-3333333333333------| 2x
E|--111111111111111----------------------------------------------|

G|---------------------------------------------------------------|
D|---------------------------------------------------------------|
A|-888888888888888-------3~--------------------------------------|
E|---------------------------------------------------------------|

Verse 1: Ah... (1:45)
G|---------------------------------------------------------------|
D|---------------------------------------------------------------|
A|-333333333333333-888888888888888-7777777777777-8888888888888---| 2x
E|---------------------------------------------------------------|

Verse 2: Mimi wo sumashitemo... (2:13)
G|---------------------------------------------------------------|
D|---------------------------------------------------------------|
A|-10101010101010-888888888888888-7777777777777-1212121212121212-|
E|---------------------------------------------------------------|

G|---------------------------------------------------------------|
D|---------------------------------------------------------------|
A|-10101010101010-888888888888888-777777777777--3--3--3--3-------|
E|---------------------------------------------------------------|

Chorus: In Silence... (2:27)
G|---------------------------------------------------------------|
D|---------------------------------------------------------------|
A|------------------333333333333-888888888888-3333333333333------| 2x
E|--111111111111111----------------------------------------------|

Bridge: Musuu no (2:55)
G|-------------------------------------|
D|------------------9--10--9-----------|
A|--8~---10~-----7------------10--7----| 3x
E|-------------------------------------|

G|----------------------------------------------------------|
D|-----------------------------------------9--10--9---------|
A|-8888888888888888-101010101010101010--7------------10--7--|
E|----------------------------------------------------------|
 
G|---------------------------------------------------------------|
D|---------------------------------------------------------------|
A|------------------333333333333-888888888888-3333333333333------| 2x
E|--111111111111111----------------------------------------------|

Verse 3: Masshiro na hanega (3:51)
G|---------------------------------------------------------------|
D|---------------------------------------------------------------|
A|---------------------------------------------------------------|
E|-333333333-11111111-000000000-555555555-333333333-111111111----|

G|---------------------------------------------------------------|
D|---------------------------------------------------------------|
A|------------------3355-----------------------------------------|
E|-000000000-555777------33333333-111111111-0000000-5555555------|

G|---------------------------------------------------------------|
D|---------------------------------------------------------------|
A|---------------------------------------------------------------|
E|33333333-111111111-0~-------------3--3--3--3-------------------|

Chorus: In Silence... (4:20)
G|---------------------------------------------------------------|
D|---------------------------------------------------------------|
A|------------------333333333333-888888888888-3333333333333------| 4x
E|--111111111111111----------------------------------------------|
Добавлено: 04.03.2012
Другие материалы по этой песне:

Страница создана 04.03.2012
http://primanota.ru/luna-sea/in-silence-chords.htm
Привет, Гость.
Предлагаем пройти революционный курс по гитаре.
Подарок от PrimaNota.Ru, забирай!