PrimaNota.ru - самый крупный в мире бесплатный архив песенных текстов, аккордов, табулатур и нот


Luna Pop - La Fiera Dei Sogni - аккорды и текст, видео

Регистрация Запомнить меня
Войти через:  Facebook Google Twitter Vk Yandex Mail.ru

Luna Pop - La Fiera Dei Sogni - аккорды и текст, видео

Печатать
Просмотров: 83
La Fiera Dei Sogni
Luna Pop
		   LA FIERA DEI SOGNI - LUNAPOP


INTRO

e------------|-----------|-------------------------
B------7---7-|-----7-----|-----7-------------------
G--6-9---9---|-6-9---9-6-|-6-9---9-9-6-------6-----
D------------|-----------|-------------9-9-9---7---
A------------|-----------|-------------------------
E------------|-----------|-------------------------


e------------|-----------|--------------------------
B------7---7-|-----7-----|-----7---------7----------
G--6-9---9---|-6-9---9-6-|-6-9---9-6-6-9---9-6------
D------------|-----------|---------------------9-7--
A------------|-----------|--------------------------
E------------|-----------|--------------------------


MI       SI      LA
Stanotte, che notte. non ho dormito niente
MI       SI       LA
Le botte, sì le botte. quelle sì le ho prese in testa
MI       SI
Ma niente, non è servito a niente
LA    MI
E ha fatto solo tornare in mente la gente
SI          LA
Quella gente che non sa.

           MI
Che una bambina ha preso tutti i miei sogni
SI
E che sogni.
LA    MI
O eran quelli che mi fanno andare avanti
       SI       LA
Ma più avanti non si va.

      FA#m    SI
Andrò alla fiera dei sogni. stanotte
      FA#m
Andrò alla fiera dei sogni.
             LA     SI
E costa poco e c'è un sogno che si chiama
MI              LA      MI     LA
Libertà che non ho. libertà che non ho

MI       SI  LA
Il sole, che sole. mi entra dentro agli occhi
 MI     SI
e alle parole, sì le parole
LA    MI
ascolto un po' di Vasco e il cuore muore
         SI         LA   MI
e se muore.è soffocato dalle bollicine del mare
SI         LA
che sale e salirà

     MI
e una bambina ha preso tutti i miei sogni
        SI
E che sogni.
LA       MI
O eran quelli che mi fanno andare avanti
 SI          LA
Ma più avanti non si va.



      FA#m    SI
Andrò alla fiera dei sogni. stanotte
      FA#m
Andrò alla fiera dei sogni.
             LA     SI
che costa poco e c'è un sogno che si chiama
MI              LA       MI     LA
Libertà che non ho. libertà che non ho
 FA#m SI  FA#m LA  SI  MI  LA  MI  LA
Libertà. libertà.

MI       SI      LA
Stanotte, che notte. non ho dormito niente

MI       SI       LA
Le botte, sì le botte. quelle sì le ho prese in testa
MI       LA    MI
Ma niente, non è servito a niente.




     
Добавлено: 06.11.2013
Другие материалы по этой песне:
  • Аккорды и текст

Страница создана 03.06.2012
http://primanota.ru/luna-pop/la-fiera-dei-sogni-chords.htm
Привет, Гость.
Предлагаем пройти революционный курс по гитаре.
Подарок от PrimaNota.Ru, забирай!