PrimaNota.ru - самый крупный в мире бесплатный архив песенных текстов, аккордов, табулатур и нот


Luna amara - In Gol - таба, видео

Регистрация Запомнить меня
Войти через:  Facebook Google Twitter Vk Yandex Mail.ru

Luna amara - In Gol - таба, видео

Печатать
Просмотров: 51
//Artist: Luna Amara
//Song: In gol
//Album: Pietre in alb(2011)

Intro:
Guitar 1:
e|---------------------------------------------------------------|
B|---------------------------------------------------------------|
G|---------------------------------------------------------------|
D|-------------------------------------3--3-3--------------------| x4
A|----------5--------------------------3--3-3--------------------|
D|-2--0-0-2---2-0-2--0-3--0-5-2-0-2--0-3--3-3--------------------|

Guitar 1 and 2:
e|---------------------------------------------------------------|
B|---------------------------------------------------------------|
G|---------------------------------------------------------------|
D|-2--0-0-2---2-0-2--0-3--0-5-2-0-2--0-3--3-3--------------------| x5
A|-2--0-0-2-5-2-0-2--0-3--0-5-2-0-2--0-3--3-3--------------------|
D|-2--0-0-2---2-0-2--0-3--0-5-2-0-2--0-3--3-3--------------------|

VERSE_RHYTHM:
End on A and then on B, alternatively
e|---------------------------------------------------------------|
B|---------------------------------------------------------------|
G|----------------------|=======A========||=======B=======|------|
D|-2--000-2---222---2-2--000-2---2-2-2--2--0-0-3-3-3-0-0-0-------| 
A|-2--000-2-5-222-5-2-2--000-2-5-2-2-2--2--0-0-3-3-3-0-0-0-------|
D|-2--000-2---222---2-2--000-2---2-2-2--2--0-0-3-3-3-0-0-0-------|

VERSE_HARMONY:
Either reverb or repetitive picking on each note
e|--12------------10----------------------------------------------|
B|---------13------------10---------------------------------------|
G|---------------------------------------------------------------|
D|---------------------------------------------------------------|
A|---------------------------------------------------------------|
D|---------------------------------------------------------------|

Guitar 2:
VERSE_RHYTHM(PM) x4
Guitar 1:
VERSE_HARMONY x2

Guitar 2:
VERSE_RHYTHM(PM) x8
Guitar 1:
VERSE_HARMONY x4
Stau să te-aud cum arunci / Vorbe mari ca valuri de noroi.
Știu să te-ascult când încerci, / Limba-n sânge vânăt să-ți îneci. 
Pot să te-ajut, dacă vrei, / Prima piatră de pe jos s-o iei. 
Vreau să îmi simți tâmpla grea, / Răsturnată-n gol sub piatra ta. 

Guitar 1 and 2:
VERSE_RHYTHM x4

Guitar 2:
VERSE_RYTHM(don't play the first A part and PM) x8
Guitar 1:
VERSE_HARMONY x4
Eu nu ridic vorbe-n vânt, / Răstignită-mi limba tace-n cânt. 
Tu ești un rău trecător, / Mediocru, fals, amăgitor. 
Orb de ai fi, te-aș uimi. / De sânge, prin timpane, te-aș goli. 
Nu căuta să-nțelegi. / Vina ta-i c-ai vrut să-nnozi, nu să dezlegi. 

Guitar 1 and 2:
VERSE_RHYTHM x4
Vina ta-i c-ai vrut să-nnozi, nu să dezlegi.

CHORUS_1:
e|---------------------------------------------------------------|
B|---------------------------------------------------------------|
G|-2----------2---------2----------------------------------------|
D|-0----------0---------0----------------------------------------|
A|-2----------2---------2----------------------------------------|
D|-----0-0-0------0-0-0------------------------------------------|

CHORUS_2:
e|---------------------------------------------------------------|
B|---------------------------------------------------------------|
G|---------------------------------------------------------------|
D|-4-4--7-7--------------------------------------------------------|
A|-2-2--5-5--------------------------------------------------------|
D|-2-2--5-5--------------------------------------------------------|

CHORUS_3:
e|---------------------------------------------------------------|
B|---------------------------------------------------------------|
G|---------11/13-13~--------14/13-13-----------------------------|
D|---------------------------------------------------------------|
A|----------9/11-11~--------12/11-11-----------------------------|
D|-0-0-0-0------------0-0-0--------------------------------------|

Guitar 1 and 2:
CHORUS_1 + CHORUS_2   x2
Chiar de-aș vrea să iert nimicul tău 
Nu mai pot să mint

Guitar 1 and 2:
CHORUS_3:

Guitar 1 and 2:
CHORUS_2 + CHORUS 1 + CHORUS_2
Că-mi pare rău 
Că-ți este rău 
Si-ți pare rău...

Guitar 1 and 2:
e|---------------------------------------------------------------|
B|---------------------------------------------------------------|
G|---------------------------------------------------------------|
D|-0-2-0-2--0-3--3-3---------------------------------------------|
A|-0-2-0-2--0-3--3-3---------------------------------------------|
D|-0-2-0-2--0-3--3-3---------------------------------------------|

LAST_VERSE_HARMONY:
Repetitive picking on each note:
e|---------------------------------------------------------------|
B|---------------------------------------------------------------|
G|---------------------------------------------------------------|
D|-9-----10------------9-----------------------------------------|
A|--------------12-----------------------------------------------|
D|---------------------------------------------------------------|

Guitar 1:
LAST_VERSE_HARMONY(with background bass only) x2

Guitar 2:
VERSE_RYTHM(PM)
Guitar 1:
LAST_VERSE_HARMONY x4
Știu, îți e greu să-nțelegi / Lucruri simple, întâmplări firești. 
Noi, conspirăm să-ți furăm / Prețiosul tău nimic înveninat. 
Da, noi suntem peste tot. / Umbre șerpuite-n lumea ta. 
Da, noi avem doar un rol: / Să privim cum te arunci în gol. 

Guitar 1 and 2:
VERSE_RYTHM x4
Să privim cum te arunci în gol.

Guitar 1 and 2:
CHORUS_1 + CHORUS_2   x2
Chiar de-aș vrea să iert nimicul tău 
Nu mai pot să mint

Guitar 1 and 2:
CHORUS_3:

Guitar 1 and 2:
CHORUS_2
Că-mi pare rău 

Guitar 1 and 2:
e|---------------------------------------------------------------|
B|---------------------------------------------------------------|
G|---------11/13-13~---------------------------------------------|
D|---------------------------------------------------------------|
A|----------9/11-11~---------------------------------------------|
D|-0-0-0-0-------------------------------------------------------|
Că-ți este rău!

BRIDGE_INTRO:
e|---------------------------------------------------------------|
B|---------------------------------------------------------------|
G|---------------------------------------------------------------|
D|---------------------------------------------------------------|
A|-------3-----2---------3-----2---------------------------------|
D|-0-4-5---5-0---4-0-1-0---5-0---4-0-1-0-------------------------|

BRIDGE_RYTHM:
Play the A part every second time
e|---------------------------------------------------------------|
B|---------------------------------------------------------------|
G|------------------------A--------------------------------------|
D|----------------------|===|------------------------------------|
A|-------3-----2---------6-0-------------------------------------|
D|-0-4-5---5-0---4-0-1-0-----------------------------------------|

BRIDGE_RIFF:
e|---------------------------------------------------------------|
B|---------------------------------------------------------------|
G|-11-----11---13---14-13----------------------------------------|
D|---------------------------------------------------------------|
A|-9------9----11---12-11----------------------------------------|
D|----0-0----0----0----------------------------------------------|

Guitar 2:
BRIDGE_INTRO

Guitar 1 and 2:
BRIDGE RIFF + BRIDGE RYTHM x8

Guitar 1 and 2:
CHORUS_1 + CHORUS_2   x2
Chiar de-aș vrea să iert nimicul tău 
Nu mai pot să mint

Guitar 1 and 2:
CHORUS_3:

Guitar 1 and 2:
CHORUS_2 + CHORUS 1 + CHORUS_2
Că-mi pare rău 
Că-ți este rău 
Si-ți pare rău...

Guitar 1 and 2:
e|---------------------------------------------------------------|
B|---------------------------------------------------------------|
G|---------11/13-13~---------------------------------------------|
D|---------------------------------------------------------------| x4
A|----------9/11-11~---------------------------------------------|
D|-0-0-0-0-------------------------------------------------------|

Guitar 1 and 2:
e|---------------------------------------------------------------|
B|---------------------------------------------------------------|
G|---------------------------------------------------------------|
D|-9-10-12-0-9-10-0-0-0-3-0-5-0----------------------------------| x4
A|-9-10-12-0-9-10-0-0-0-3-0-5-0----------------------------------|
D|-9-10-12-0-9-10-0-0-0-3-0-5-0----------------------------------|

Guitar 1 and 2:
e|---------------------------------------------------------------|
B|---------------------------------------------------------------|
G|---------------------------------------------------------------|
D|-9-10-12-0-9-10-0-000-3-0-5-0----------------------------------| x4
A|-9-10-12-0-9-10-0-000-3-0-5-0----------------------------------|
D|-9-10-12-0-9-10-0-000-3-0-5-0----------------------------------|

Guitar 1 and 2:
e|---------------------------------------------------------------|
B|---------------------------------------------------------------|
G|---------------------------------------------------------------|
D|-9-10-12--9-10-12/---------------------------------------------|
A|-9-10-12--9-10-12/---------------------------------------------|
D|-9-10-12--9-10-12/---------------------------------------------|
Добавлено: 10.06.2016
Вам также может быть интересно:
Другие материалы по этой песне:
  • Аккорды и текст

Страница создана 10.06.2016
http://primanota.ru/luna-amara/in-gol-chords.htm
Привет, Гость.
Предлагаем пройти революционный курс по гитаре.
Подарок от PrimaNota.Ru, забирай!