PrimaNota.ru - самый крупный в мире бесплатный архив песенных текстов, аккордов, табулатур и нот


Lumsk - I Trollehender - текст песни, таба, видео

Регистрация Запомнить меня
Войти через:  Facebook Google Twitter Vk Yandex Mail.ru

Lumsk - I Trollehender - текст песни, таба, видео

Печатать
Просмотров: 201
Уроки эстрадного вокала в Санкт-Петербурге
                                           I Trollehender
                                               Lumsk

                                       Gtr I (B E A D F# B)
                                       Gtr II (B E A D F# B) 


   Intro
    Q=86
    Gtrs I, II
      PM               PM|               PM              PM|
                             |-3-|
    E E S  S S  S S  S S S Q S S S  3x E E S  S S  S  E  S S E
||----------------------------------||---------------<5>--------||
||o--------------------------------o||---------------<5>--------||
||----------------------------------||---------------<5>--------||
||----------------------------------||---------------<5>--------||
||o-4-5-5-4-4-/5-5-4-4-5-7-------o||-4-5-5-4-4-/5-<5>-4-5-2--||
||--2-3-3-2-2-/3-3-2-2-3-5-5h6p5--||-2-3-3-2-2-/3-<5>-2-3-0--||


 Pre-Verse
  Gtrs I, II
                    PM|             PM|
        |-3-|                 |-3-|
  E E E S S S E E E S S   E E S S S S S Q  Q
|-----------------------|---------------------|
|-----------------------|---------------------|
|-----------------------|-2-4-----------------|
|-4-5-4-2h4p2-4-2-4-----|-0-2-0h2p0-----4--4--|
|-2-2-2-2-----5-4-2-2-4-|-----------4-0-2--2--|
|-----------------------|---------------------|


  Gtrs I, II
                    PM|
        |-3-|                 |-3-|
  E E E S S S E E E S S   E E S S S E Q  Q
|-----------------------|-------------------||
|-----------------------|-------------------||
|-----------------------|-2-4-------4-6--6--||
|-4-5-4-2h4p2-4-2-4-----|-0-2-0h2p0-2-4--4--||
|-2-2-2-2-----5-4-2-2-4-|-----------2-4--4--||
|-----------------------|-------------------||


 Verse
  Gtrs I, II
                PM|         PM|
  E E E E E E E S S   E E E S S Q  Q
|-------------------|-----------------|
|-------------------|-----------------|
|-------------------|-2-4-2-----------|
|-4-5-4-2-4-2-4-----|-0-2-0-----4--4--|
|-2-2-2-2-5-4-2-2-4-|-------4-0-2--2--|
|-------------------|-----------------|


  Gtrs I, II
                PM
  E E E E E E E S S   E E E E Q Q
|-------------------|-------------||
|-------------------|-------------||
|-------------------|-2-4-2-4-6-6-||
|-4-5-4-2-4-2-4-----|-0-2-0-2-4-4-||
|-2-2-2-2-5-4-2-2-4-|-------2-4-4-||
|-------------------|-------------||


   Coda
    Gtr I
    E E E E S S S S E S S   E E E E S S S S E E
||------------------------|----------------------||
||o-----------------------|---------------------o||
||--6-6-6-6-6S7S6-4-6-6-6-|-7-7-7-7-7S9S7-6S7-6--||
||--4-4-4-4-4S5S4-2-4-4-4-|-5-5-5-5-5S7S5-4S5-4--||
||o-4-4-4-4-4S5S4-2-4-4-4-|-5-5-5-5-5S7S5-4S5-4-o||
||------------------------|----------------------||


    Gtrs I, II
       PM|           PM|
    Q  E E S S S S E S S   E E E E S S S S E E  6x
||-----------------------|----------------------||
||o----------------------|---------------------o||
||-----------------------|----------------------||
||--4--4-4---------4-4-4-|-5-5-5-5-------4-5-4--||
||o-4--4-4-4S5S4---4-4-4-|-5-5-5-5-5S7S5-4-5-4-o||
||--2--2-2-2S3S2-0-2-2-2-|-3-3-3-3-3S5S3-2-3-2--||




-----------------------------------------------------------


Duration Legend
---------------
W - whole; H - half; Q - quarter; E - 8th; S - 16th; T - 32nd; X - 64th;
 a - acciaccatura
+ - note tied to previous; . - note dotted; .. - note double dotted
Uncapitalized letters represent notes that are staccato (1/2 duration)
Irregular groupings are notated above the duration line
Duration letters will always appear directly above the note/fret number
it represents the
duration for.  Duration letters with no fret number below them represent
rests.  Multi-
bar rests are notated in the form Wxn, where n is the number of bars to
rest for.  Low
melody durations appear below the staff

Tablature Legend
----------------
 h   - hammer-on
 p   - pull-off
 b   - bend
 pb  - pre-bend
 r   - bend release (if no number after the r, then release immediately)
 /  - slide into or out of (from/to "nowhere")
 s   - legato slide
 S   - shift slide
 - natural harmonic
[n]  - artificial harmonic
n(n) - tapped harmonic
 ~   - vibrato
 tr  - trill
 T   - tap
 TP  - trem. picking
 PM  - palm muting

/  - tremolo bar dip; n = amount to dip
 
  - tremolo bar down
 n/  - tremolo bar up
/n  - tremolo bar inverted dip
 =   - hold bend; also acts as connecting device for hammers/pulls
 <> - volume swell (louder/softer)
 x   - on rhythm slash represents muted slash
 o   - on rhythm slash represents single note slash

Misc Legend
-----------
 |  - bar
||  - double bar
||o - repeat start
o|| - repeat end
*|  - double bar (ending)
 :  - bar (freetime)
 $  - Segno
 &  - Coda

Tempo markers -  = BPM(8/16=s8/s16), where s8 = swing 8ths,
s16 = swing 16ths

  

Добавлено: 21.07.2012
Другие материалы по этой песне:
  • Аккорды и текст

Страница создана 28.06.2012
http://primanota.ru/lumsk/i-trollehender-chords.htm
Привет, Гость.
Предлагаем пройти революционный курс по гитаре.
Подарок от PrimaNota.Ru, забирай!