PrimaNota.ru - самый крупный в мире бесплатный архив песенных текстов, аккордов, табулатур и нот


Lumsk - I Lytinne Tva - таба, видео

Регистрация Запомнить меня
Войти через:  Facebook Google Twitter Vk Yandex Mail.ru

Lumsk - I Lytinne Tva - таба, видео

Печатать
Просмотров: 119
I Lytinne
Lumsk



Duration Legend
---------------
W - whole; H - half; Q - quarter; E - 8th; S - 16th; T - 32nd; X - 64th; a -
acciaccatura
+ - note tied to previous; . - note dotted; .. - note double dotted
Uncapitalized letters represent notes that are staccato (1/2 duration)
Irregular groupings are notated above the duration line
Duration letters will always appear directly above the note/fret number it
represents the
duration for.  Duration letters with no fret number below them represent rests.
 Multi-
bar rests are notated in the form Wxn, where n is the number of bars to rest
for.  Low
melody durations appear below the staff

Tablature Legend
----------------
 h   - hammer-on
 p   - pull-off
 b   - bend
 pb  - pre-bend
 r   - bend release (if no number after the r, then release immediately)
 /  - slide into or out of (from/to "nowhere")
 s   - legato slide
 S   - shift slide
 - natural harmonic
[n]  - artificial harmonic
n(n) - tapped harmonic
 ~   - vibrato
 tr  - trill
 T   - tap
 TP  - trem. picking
 PM  - palm muting

/  - tremolo bar dip; n = amount to dip
 
  - tremolo bar down
 n/  - tremolo bar up
/n  - tremolo bar inverted dip
 =   - hold bend; also acts as connecting device for hammers/pulls
 <> - volume swell (louder/softer)
 x   - on rhythm slash represents muted slash
 o   - on rhythm slash represents single note slash

Misc Legend
-----------
 |  - bar
||  - double bar
||o - repeat start
o|| - repeat end
*|  - double bar (ending)
 :  - bar (freetime)
 $  - Segno
 &  - Coda
Tempo markers -  = BPM(8/16=s8/s16), where s8 = swing 8ths,
 s16 = swing 16ths

Gtr I (B E A D F# B) 


 Pre-verse & verse
       Q=125
 3/4
  Q.   S..  E. S..     Q   e. S E. S
|------------------||----------------|
|------------------||o---------------|
|------------------||----------------|
|------8---10--7---||--9-------------|
|------6----8--5---||o-7--10--7-9--6-|
|------6----8--5---||--7---8--5-7--4-|


  Q.  E e. S   Q  e. S e. S   Q.   S..  e. S.
|------------|--------------|-------------------||
|------------|--------------|------------------o||
|------------|------------8-|-------------------||
|------------|-4--5----4--6-|-9----8---10--7----||
|-2-----6--0-|-2--3--0-2--6-|-7----6----8--5---o||
|-0---0-4----|--------------|------6----8--5----||


   Chorus
    H    Q    Q..   S E. S   Q E. S E. S   H Q
||----------|--------------|-------------|-------||
||o---------|--------------|-------------|------o||
||--7----6--|-------4-5----|-4-4--5-3--5-|-4-4---||
||--5----4--|-7-----2-3--0-|-2-2--3-1--3-|-2-2---||
||o-5----4--|-5-----2-3--0-|-2-2--3-1--3-|-2-2--o||
||----------|-5------------|-------------|-------||


   Solo 1 & 3 (Violin)
     H    q     H    q     H    q     H    q   3x H.
||-----------|----------|----------|-----------||---------|
||o----------|----------|----------|----------o||---------|
||--!4-------|-!4-------|-!4-------|-!4--------||-2-------|
||--!2-------|-!2-------|-!2-------|-!2--------||-2-------|
||o-!2-------|-!2-------|-!2-------|-!2-------o||-0-------|
||--!0----0--|-!0----0--|-!0----0--|-!0----0---||---------|


  H.        S +S  +S  S +S  +S  S +S  +S  S +S  +S
|---------|-----------------------------------------|
|---------|-----------------------------------------|
|-2-------|-----------------------------------------|
|-2-------|-3-(3)-(3)-3-(3)-(3)-3-(3)-(3)-3-(3)-(3)-|
|-0-------|-3-(3)-(3)-3-(3)-(3)-3-(3)-(3)-3-(3)-(3)-|
|---------|-1-(1)-(1)-1-(1)-(1)-1-(1)-(1)-1-(1)-(1)-|


   Solo 2 (Piano)
    H     Q    H    Q    H    Q    H.     3x
||-----------|---------|---------|--------||
||o----------|---------|---------|-------o||
||--9----11--|-9----7--|-9-------|--------||
||--9----11--|-9----7--|-9----7--|-9------||
||o-7-----9--|-7----5--|-7----7--|-7-----o||
||--7-----9--|-7----5--|-7----5--|-7------||
Добавлено: 03.03.2012
Другие материалы по этой песне:
  • Аккорды и текст

Страница создана 03.03.2012
http://primanota.ru/lumsk/i-lytinne-tva-chords.htm
Привет, Гость.
Предлагаем пройти революционный курс по гитаре.
Подарок от PrimaNota.Ru, забирай!