PrimaNota.ru - самый крупный в мире бесплатный архив песенных текстов, аккордов, табулатур и нот


Luminites - Hurt So Good - таба, видео

Регистрация Запомнить меня
Войти через:  Facebook Google Twitter Vk Yandex Mail.ru

Luminites - Hurt So Good - таба, видео

Печатать
Просмотров: 101
Capo 3rd fret
Intro/Verse
     G            Cadd9       G
E|---------------------------------------------------|
B|---3-----3-----------3------3------0h1-------0-----|
G|---0-----0-----------0------0------0----h2---0-----|
D|-----------------------------------0---------------|
A|---------2--------3--------------------------------|
E|---3------------------------3----------------------|

     G            Cadd9       G        D     Dsus
E|----------------------------------------2---3------|
B|---3-----3-----------3------3--------3--3---3------|
G|---0-----0-----------0------0--------2-------------|
D|-------------------------------------0-------------|
A|---------2--------3--------------------------------|
E|---3------------------------3----------------------|


First, you take my heartin the palm of your hands and you squeeze it tight
Then you take my mind and then you play with it all night
You take my pride and you and throw it up against the wall
You take me in your arms, baby and bounce me like a rubber ball

G                  Cadd9
Cause, baby, those things you're doing to me
Em7                  D
They hurt so bad but it's worth all the misery

D                      G        Cadd9                  
Don't you know that it hurts so good don't you know that it
G        Cadd9                       G        Em7           D 
Hurts so good don't you know that it hurts so good hurts so good
D                      G        Cadd9                  
Don't you know that it hurts so good don't you know that it
G        Cadd9                       G        Em7           D 
Hurts so good don't you know that it hurts so good hurts so good
                  
Let me tell you know it hurts so good I'm thinking of ways to treat you
You make me feel like Ben and Jerry's would
Come and take my hand (take my hand)
Baby, baby those things you're doing to me
They hurt so bad but it's worth all the misery Yeah, yeah, yeah

Don't you know that it hurts so good don't you know that it
Hurts so good don't you know that it hurts so good hurts so good
Don't you know that it hurts so good don't you know that it
Hurts so good don't you know that it hurts so good hurts so good


tabbed by www.popmusictuition.com
Добавлено: 26.07.2013
Другие материалы по этой песне:
  • Аккорды и текст

Страница создана 26.07.2013
http://primanota.ru/luminites/hurt-so-good-chords.htm
Привет, Гость.
Предлагаем пройти революционный курс по гитаре.
Подарок от PrimaNota.Ru, забирай!