PrimaNota.ru - самый крупный в мире бесплатный архив песенных текстов, аккордов, табулатур и нот


Lumen - Свобода - аккорды и текст, видео

Регистрация Запомнить меня
Войти через:  Facebook Google Twitter Vk Yandex Mail.ru

Lumen - Свобода - аккорды и текст, видео

Печатать
Просмотров: 617
Свобода
Lumen
Вступление:

    Gm          F           C                
E||-----------|-----------|----------|------|
H||---3-------|-----------|----------|------|
G||------5--3-|-2---------|----------|------| \
D||-----------|----5-3--5-|----5-5---|------| / 4 раза
A||-----------|-----------|-3--------|------|
E||-----------|-----------|----------|------|
                            ^
                            '-- с вариациями

Gm             F                   C               C/E    C/F
Это как будто сердце в тиски, как будто за миг побелели виски,
Как будто на тебя накатила усталость, и от тебя самого ничего не осталось
Как будто был голос, но связки порвались, как будто мечта унеслась быстро ввысь...
Когда у тебя отбирают свободу, остается лишь ненависть, ненависть, ненависть...

	Dm       F               Em7            A
	Я  задыхаюсь, мне все теснее с каждым годом      \
	       F                       Em7     A	        > 2 раза
	Я широко раскрыл глаза, но не могу найти свободу /

Проигрыш:

                               
    Gm         F         C
H||----------|---------|-------|---------|
G||0h2---2---|---------|-------|---------|
D||--------5-|-3-----3-|-3^-5--|----5^-3-|
A||----------|-----5---|-------|---------|

    Gm         F         C                                              
  |----------|---------|-------|---------||
  |-2----2-5-|---------|-------|---------||
  |----------|-3---5-3-|-5-----|---------||
  |----------|---------|-------|---------||


За свободу можно второй раз родиться, сдохнуть тысячу раз, но не опуститься
Бороться и драться, проиграть, но не сдаться, идти много лет, но все же добраться
Шагая один, или братья по разуму, тебе повторяют все время "Держись!"
Но когда у тебя ее отбирают, остается лишь ненависть, ненависть, ненависть...

	Припев

	Dm F Em7     A
	         Найти свободу... > 2 раза

Кода: Dm | F | Em7 | A | Dm | F | Em7 | A | Gm
Добавлено: 15.06.2012
Другие материалы по этой песне:

Страница создана 01.06.2012
http://primanota.ru/lumen/svoboda-chords.htm
Привет, Гость.
Предлагаем пройти революционный курс по гитаре.
Подарок от PrimaNota.Ru, забирай!