PrimaNota.ru - самый крупный в мире бесплатный архив песенных текстов, аккордов, табулатур и нот


Luke Spehar - Offertory - таба, видео

Регистрация Запомнить меня
Войти через:  Facebook Google Twitter Vk Yandex Mail.ru

Luke Spehar - Offertory - таба, видео

Печатать
Просмотров: 37
-------------------------------------------------------------------------------
                             Offertory - Luke Spehar
-------------------------------------------------------------------------------
Tabbed by: J Hazard

Tuning: Standard

Intro

e|----------------------------------------------0----------------------------|
B|----------1p0-------------------------------3---3-1--------1-------1-0-----|
G|--------2-----2p0--------0----------------0--------------2-------0---------|
D|------3--------------2/3---3/2---0------0--------------2-------------------|
A|----3--------------3-----------3------2--------------0---------------------|
E|--1---------------------------------3-------------------------3------------|

e|--------------------------------------------------------3-----------------:|
B|--0h1-----1-0h1p0-------------------------------3-----3-------------------:|
G|--------2---------2p0--------0----------------0-----0---------------------:|
D|------3------------------2/3---3/2---0------0-----0-----------------------:|
A|-----------------------3-----------3------2----------------2/3------------:|
E|--1-------------------------------------3---------------------------------:|

Verse 1

       F                C
Lord almighty, I come before thee
         F                      Em
though unworthy, because you've asked me
     F               C
to remember, by your body,
F             G        C
what you have done for me.

Verse 2

        F                  C
Lord forgive me, please prepare me
     F                  Em
to receive this gift so humble.
        F                C
Open my eyes, that I may see
F           G   C
You in your glory.

Outtro

e|----------------------------------------------0----------------------------|
B|----------1p0-------------------------------3---3-1--------1-------1-0-----|
G|--------2-----2p0--------0----------------0--------------2-------0---------|
D|------3--------------2/3---3/2---0------0--------------2-------------------|
A|----3--------------3-----------3------2--------------0---------------------|
E|--1---------------------------------3-------------------------3------------|

e|--------------------------------------------------------3-------0----------|
B|--0h1-----1-0h1p0-------------------------------3-----3---------1----------|
G|--------2---------2p0--------0----------------0-----0-----------0----------|
D|------3------------------2/3---3/2---0------0-----0-------------0h2--------|
A|-----------------------3-----------3------2----------------2/3--3----------|
E|--1-------------------------------------3----------------------------------|




************************************

| /   slide up
| \   slide down
| h   hammer-on
| p   pull-off
| ~   vibrato
| +   harmonic
| x   Mute note
| b   Bend
| pb  Pre-bend
| br  Bend release
| pbr Pre-bend release
| brb Bend release bend

************************************
Добавлено: 06.10.2015
Вам также может быть интересно:
Другие материалы по этой песне:
  • Аккорды и текст

Страница создана 06.10.2015
http://primanota.ru/luke-spehar/offertory-chords.htm
Привет, Гость.
Предлагаем пройти революционный курс по гитаре.
Подарок от PrimaNota.Ru, забирай!