PrimaNota.ru - самый крупный в мире бесплатный архив песенных текстов, аккордов, табулатур и нот


Luke Pickett - Going Down With This Ship - таба, видео

Регистрация Запомнить меня
Войти через:  Facebook Google Twitter Vk Yandex Mail.ru

Luke Pickett - Going Down With This Ship - таба, видео

Печатать
Просмотров: 158
Going Down With This Ship - Luke Pickett

Album: 2007 Canvas Room Demo
Label: The Canvas Room
Website: www.lukepickett.com and/or www.myspace.com/lukepickett

Tabbed by: Nick M.  and/or  www.myspace.com/nicmat42
Email: nicmat42@hotmail.com

Standard Tuning (EADGBe)
Capo on 2
All notes relative to capo


*Note: Listen to the song to figure out the picking and progressions, I mostly only 
each chord for each part. The picking is mostly the same throughout the entire song.


Intro/Verse   x4

"Its staring you, its staring me..."
e|----------------------------------------------------------------------|
B|---------------------0------------------------------------0-----------|
G|-------------3------------3----------------------3------------3-------|
D|---------------------------------------------4-------4----------------|
A|--------6-------6-------------6-----------------------------------4---|
E|---4--------------------------4--------2--------------------------2---|

e|-------------------------------------------------------------------------|
B|-----------------0--------------------------------0----------------------|
G|------------3--------3----------------------3--------3-------------------|
D|-------4--------------------------------4-----------------4--------------|
A|--------------------------2-----------------------------------2----------|
E|---0----------------------0--------0--------------------------0----------|


Pre-Chorus    x1

"And so I watch the waves surround us..."
e|-------------------------------------|
B|---0---------0---------0---------0---|
G|---3---------3--------10--------10---|
D|---4---------x---------9---------9---|
A|---4---------6---------9---------7---|
E|---2---------4---------7---------9---|


1st Chorus

"Run away and they will only follow you..."
e|----0---------0---------0--------0-----------------|
B|---12--------12--------12-------12-----------------|
G|---11--------11--------11-------11-----------------|  x4
D|---13--------13--------13-------13-----------------|
A|----9---------9--------11--------x-----------------|
E|---(0)-------(0)----------------11-----------------|

e|---0------------------0------0----|
B|--12-----------------12-----12----|
G|--11-----------------11-----11----|  x1
D|--13-----------------13-----13----|
A|---x------------------x------9----|
E|---9----------------/11-----------|

Intro/Verse       x2          "Now this ghost ship..."


Pre-Chorus     x1             "A diary that speaks of torture..."


2nd Chorus     x4

"Run away and they will only follow you..."
e|-----------------------------|
B|---0------0------------------|
G|---4------3------4------11---|
D|---4------4------4------11---|
A|---2------2------x-------x---|
E|---0------0------4------11---|

Bridge

"..."
e|---0------------------0----0-----------0---|
B|--12-----------------12---12----------12---|
G|--11-----------------11---11----------11---|  x1
D|--13-----------------13---13----------13---|
A|---x-----------------x-----9---------/11---|
E|---9----------------/11--------------------|

"The TV cracks as I reach out for you..."
e|---0------------------0----0-------------|
B|--12-----------------12---12-------------|
G|--11-----------------11---11-------------|  x3
D|--13-----------------13---13-------------|
A|---x------------------x----9-------------|
E|---9----------------/11------------------|

"The waves, the waves, the waves..."
e|----------------------|
B|----------------------|
G|---3-----4----3-------| x1
D|---4-----4----x-------|
A|---2-----x----6-------|
E|---0-----4----4-------|

2nd Chorus        x2          "Run away and they will only follow you..."

Outro

"The waves, the waves, the waves..."
e|----------------------|
B|----------------------|
G|---4----4--------3~---|  x1
D|---4----4--------4~---|
A|---0----2--------2~---|
E|---x----0--------0~---|

enjoy.
Добавлено: 15.05.2012
Другие материалы по этой песне:
  • Аккорды и текст

Страница создана 15.05.2012
http://primanota.ru/luke-pickett/going-down-with-this-ship-chords.htm
Привет, Гость.
Предлагаем пройти революционный курс по гитаре.
Подарок от PrimaNota.Ru, забирай!