PrimaNota.ru - самый крупный в мире бесплатный архив песенных текстов, аккордов, табулатур и нот


Luke Pickett - Blood Money - текст песни, таба, видео

Регистрация Запомнить меня
Войти через:  Facebook Google Twitter Vk Yandex Mail.ru

Luke Pickett - Blood Money - текст песни, таба, видео

Печатать
Просмотров: 282
Blood Money by Luke Pickett

Tabbed by xhenry

This is my first tab and I'm sure its not right but this is just how i play 
it. Lyrics are for an extra little guidance on timing. I can put up a lyric 
free tab if requested.

Standard tuning

Capo 2nd

/ = slide up
\ = slide down
h = hammer on
p = pull off

Intro/verse

 This is    home                  Curtain   just           me
 I thought  alone                 Until     pain           me
 I just     were                  walking   way            me
 I guess    wrong                 you had   heart          but
|---------------|---------------|---------------|---------------|
|---------------|---------------|---------------|---------------|
|--------0------|-----0---------|--------0------|---------------|
|--------0------|-----0---0---0-|--------0------|------------0--|
|---------------|---9---9-------|---------------|---9h10p9------|
|-2/5\3-3--3/7--|-7---------7---|-2/5\3-3--3/7--|-7--------7----|

bought your       gun                                 i didn't...
|---------------|---------------|---------------|---------------|
|---------------|---------------|---------------|-----0---------|
|-----0---------|---------------|---------------|-----0--start--|
|-----0-----0---|-------4h5p4---|-------4h5p4---|-----0--strum--|
|---7-----7-----|---5---------5-|---5---------5-|-----7---ing---|
|-5-----5-------|-3---3---------|-3---3---------|-3/5-5---------|

Chorus (strumming pattern not shown)

 could           stunt                            i didn't...
|-0-------------|-0-------------|-0-------------|-0-------------|
|-0-------------|-0-------------|-0-------------|-0-------------|
|-0-------------|-0-------------|-0-------------|-0-------------|
|-0-------------|-0-------------|-0-------------|-0-------------|
|-9-------------|-5-----------/-|-7-------------|-7-------------|
|-7-------------|-3-----------/-|-5-------------|-5-------------|

End of chorus (you can just hear it)

|---------------|---------------|
|-0-------------|-0-------------|
|-0-------------|-0-------------|
|-0-------------|-0-------------|
|-9-----------\-|-2-------------|
|---------------|---------------|

Piano parts

|----10-9----||-10-9----10------------|
|-10------10-||------10----7---7----7-|
|------------||--------------9---9----|
|------------||--------------------7--|
|------------||-----------------------|
|------------||-----------------------|

Second verse (slightly more strumming)

 Leave      untied               blindfold  hide      eyes
 When       smile                a sickened begins    cry
 Lock       doors                revenge    good      before
 Time       dice                 see        luck      tonight
|---------------|---------------|---------------|---------------|
|---------------|---------------|---------------|---------------|
|--------0------|-----0---------|--------0------|---------------|
|--------0------|-----0---0---0-|--------0------|------------0--|
|---------------|---9---9-------|---------------|---9h10p9------|
|-2/5\3-3--3/7--|-7---------7---|-2/5\3-3--3/7--|-7--------7----|

 luck           tonight                                          i didn't...
|---------------|---------------|---------------|---------------|---------------|
|-0-------------|-0-------------|-0-------------|--0------------|--0------------|
|-0-------------|-0-------------|-0-------------|--0------------|--0------------|
|-0-------------|-0-------------|-0-------------|--0------------|--0------------|
|-7-------------|-5-------------|-5-----------/-|--7------------|--7------------|
|---------------|---------------|---------------|---------------|--5------------|

Chorus

 would           stunt                            i didn't..
|-0-------------|-0-------------|-0-------------|-0-------------|
|-0-------------|-0-------------|-0-------------|-0-------------|
|-0-------------|-0-------------|-0-------------|-0-------------|
|-0-------------|-0-------------|-0-------------|-0-------------|
|-9-------------|-5-----------/-|-7-------------|-7-------------|
|-7-------------|-3-----------/-|-5-------------|-5-------------|

End of chorus

|---------------|---------------|
|-0-------------|-0-------------|
|-0-------------|-0-------------|
|-0-------------|-0-------------|
|-9-----------\-|-2-------------|
|---------------|---------------|

Bridge

              walls          red
              want           white
              bloods         cold
              wouldn't       know
|---------------|---------------|---------------|---------------|
|---------------|---------------|---------------|---------------|
|---------------|---------------|---------------|---------------|
|-0-------------|-0-------------|-0-------------|--0------------|
|-5-----------/-|-7-----------/-|-9-----------/-|-12------------|
|-3-----------/-|-5-----------/-|-7-----------/-|-10------------|

              bloods         cold
              wouldn't       know
|-0-------------|-0-------------|-0-------------|--0------------|
|-0-------------|-0-------------|-0-------------|--0------------|
|-0-------------|-0-------------|-0-------------|--0------------|
|-0-------------|-0-------------|-0-------------|--0------------|
|-5-----------/-|-7-----------/-|-9-----------/-|-12------------|
|-3-----------/-|-5-----------/-|-7-----------/-|-10------------|

Bridge lead

|-----------------------------------------------------------------|
|-----------------------------------------------------------------|
|-6h7p6h7p6h7p6h7-7-7-7-7-7-7-7-7-9-9-9-9-9-9-9-9-6-6-6-6-6-6-6-6-|
|-----------------------------------------------------------------|
|-----------------------------------------------------------------|
|-----------------------------------------------------------------|

|-----------------------------------------------------------------------|
|-5h7p5h7p5h7p5h7-7-7-7-7-7-7-7-7-10-10-10-10-10-10-10-10-5-5-5-5-5-5-5-|
|-6h7p6h7p6h7p6h7-7-7-7-7-7-7-7-7--9--9--9--9--9--9--9--9-6-6-6-6-6-6-6-|
|-----------------------------------------------------------------------|
|-----------------------------------------------------------------------|
|-----------------------------------------------------------------------|

Outro

              i didn't...
|------------------------------------------------|
|---------------------------------0h3------------|
|---------0-----------0-----------0--------0-----|
|-----------------------------0--------------0---|
|-----5-----5-----7-----7-------2--------------2-|
|-0-3---3-----3/5---5-----5-0---------0----------|

            i didn't...
|----------------------------------------------|
|-------------------------------0h3------------|
|-------0-----------0-----------0--------0-----|
|---------------------------0--------------0---|
|---5-----5-----7-----7-------2--------------2-|
|-3---3-----3/5---5-----5-0---------0----------|

Slow down and end

             i didn't    could
|-------------------------0-|
|-------------------------0-|
|-------0-----------0-----0-|
|-------------------------4-|
|---5-----5-----7-----7---5-|
|-3---3-----3/5---5-----5-0-|


Please comment and rate!

Добавлено: 18.05.2012
Другие материалы по этой песне:
  • Аккорды и текст

Страница создана 23.02.2012
http://primanota.ru/luke-pickett/blood-money-chords.htm
Привет, Гость.
Предлагаем пройти революционный курс по гитаре.
Подарок от PrimaNota.Ru, забирай!