PrimaNota.ru - самый крупный в мире бесплатный архив песенных текстов, аккордов, табулатур и нот


Luke Hellebronth - Awesome Is He - таба, видео

Регистрация Запомнить меня
Войти через:  Facebook Google Twitter Vk Yandex Mail.ru

Luke Hellebronth - Awesome Is He - таба, видео

Печатать
Просмотров: 70
-------------------------------------------------------------------------------
                             AWESOME IS HE - Luke Hellebronth
-------------------------------------------------------------------------------
Tabbed by:Tom Cox       
E-mail:

Tuning: Standard (Key E)

Intro/Verse

e|--------12------12---------------------------------------------------------|
B|---9-10----9-10----12-10---------------------------------------------------|repeat
G|---------------------------------------------------------------------------|
D|---------------------------------------------------------------------------|
A|---------------------------------------------------------------------------|
E|---------------------------------------------------------------------------|

Bidge/Instrumental

e|---------------------------------------------------------------------------|
B|---10-9--------------------------------------------------------------------|repeat
G|--------9----------9-11----------------------------------------------------|
D|----------9--7--9----------------------------------------------------------|
A|---------------------------------------------------------------------------|
E|---------------------------------------------------------------------------|





************************************

| /   slide up
| \   slide down
| h   hammer-on
| p   pull-off
| ~   vibrato
| +   harmonic
| x   Mute note
| b   Bend
| pb  Pre-bend
| br  Bend release
| pbr Pre-bend release
| brb Bend release bend

************************************
Добавлено: 20.06.2016
Вам также может быть интересно:
Другие материалы по этой песне:
  • Аккорды и текст

Страница создана 20.06.2016
http://primanota.ru/luke-hellebronth/awesome-is-he-chords.htm
Привет, Гость.
Предлагаем пройти революционный курс по гитаре.
Подарок от PrimaNota.Ru, забирай!