PrimaNota.ru - самый крупный в мире бесплатный архив песенных текстов, аккордов, табулатур и нот


Luke Bryan - My Ol Bronco - таба, видео

Регистрация Запомнить меня
Войти через:  Facebook Google Twitter Vk Yandex Mail.ru

Luke Bryan - My Ol Bronco - таба, видео

Печатать
Просмотров: 66
-------------------------------------------------------------------------------
                             MY OL' BRONCO - Luke Bryan
-------------------------------------------------------------------------------
Tabbed by: Zack Ouellette
E-mail: zack_ouellette@icloud.com

Tuning: Standard

e|---------------------------------------------------------------------------|
B|----------------------------------------10-9-10-9-10-9-10/12v--------------|
G|-11b13-9----11b13-9---------9--11b13-9-9-----------------------------------|
D|---------9----------11-9-11------------------------------------------------|
A|---------------------------------------------------------------------------|
E|---------------------------------------------------------------------------|

e|-----------------------------------------------------12--------------------|
B|-----------------------------10-9-10/12\10-9---------12--------------------|
G|-11b13-9---11b13-9---------9-----------------9-11b13----13r11-9v-----------|
D|---------9---------11-9-11-------------------------------------------------|
A|---------------------------------------------------------------------------|
E|---------------------------------------------------------------------------|


************************************

| /   slide up
| \   slide down
| h   hammer-on
| p   pull-off
| ~   vibrato
| +   harmonic
| x   Mute note
| b   Bend
| pb  Pre-bend
| br  Bend release
| pbr Pre-bend release
| brb Bend release bend

************************************
Добавлено: 16.03.2016
Другие материалы по этой песне:
  • Аккорды и текст

Страница создана 16.03.2016
http://primanota.ru/luke-bryan/my-ol-bronco-chords.htm
Привет, Гость.
Предлагаем пройти революционный курс по гитаре.
Подарок от PrimaNota.Ru, забирай!