PrimaNota.ru - самый крупный в мире бесплатный архив песенных текстов, аккордов, табулатур и нот


Luis Miguel Del Amargue - Otra Noche - таба, видео

Регистрация Запомнить меня
Войти через:  Facebook Google Twitter Vk Yandex Mail.ru

Luis Miguel Del Amargue - Otra Noche - таба, видео

Печатать
Просмотров: 94
Chords
         D#m                                    C#
|---------11-----13p11------11--||----------9----11p9----9--|
|-----11-----11----------11-----||-------9-----9-------9----|
|-11----------------------------||---10---------------------|
|-------------------------------||--------------------------|
|-------------------------------||--------------------------|
|-------------------------------||--------------------------| 

              D#m (II)
|---------11-----11--14-13-11---|
|------11-----------------------|
|--11---------------------------|
|-------------------------------|
|-------------------------------|
|-------------------------------|

Intro

|----11--13-13h14--14-14-14-13---13--11---9---11--------------11--11-11-----|
|-11-----------------------------------------------11---------11--11-11-----|
|-----------------------------------------------------/11-----11--11-11-----|
|---------------------------------------------------------------------------|
|---------------------------------------------------------------------------|
|---------------------------------------------------------------------------|
                             (-----Rapido-----------------------------------|
|----11--13-13h14--14-14-14--13-13-13-13-13-13-13-13---11---9---11----------|
|-11----------------------------------------------------------------11------|
|---------------------------------------------------------------------------|
|----------------------------------------------------------------------11---|
|---------------------------------------------------------------------------|
|---------------------------------------------------------------------------|
  sl
|-11----------------------------------------------------------------------|
|----14--11--14--11----11-------------------------------------------------|
|-------------------13-----13--11--13--11--13-11-13-11--------------------|
|-----------------------------------------------------13------------------|
|-------------------------------------------------------------------------|
|-------------------------------------------------------------------------|
                           ^(2x)^
                   sl
|11----11---------/11--------------------------------------------------------|
|---14----11-----------14--11--14--11----11----------------------------------|
|------------11~----------------------13-----13--11--13--11--13-11-13-11-----|
|-----------------------------------------------------------------------13---|
|----------------------------------------------------------------------------|
|----------------------------------------------------------------------------| 

|------------------------11-------------------|
|-11----11--14~---11--14-----12-----11--------|
|----11-------------------------13-----11-----|
|------------------------------------------13-|
|---------------------------------------------|
|---------------------------------------------|
                    ^(2x)^

|----------11---------------------11---------|
|----11-14----12---15~------11-15----12---11-|
|--11------------13------11-------------13---|
|13------------------------------------------|
|--------------------------------------------|
|--------------------------------------------|


 D#m                  C#         D#m
Yo te tuve entre mis manos y te deje partir
                  C#        D#m II
Arrepentida de quererme corazon
                          C#       D#m
Me amastes tanto y nunca supe valorar tu amor
                        C#           D#m II
Y hoy me confieso arrepentido de mi error
                         C#           D#m
Nuestra casita no es la misma desde que te fuistes
                        C#        D#m II
Nuestra cama te extraña tanto como yo
                       C#           D#m II
Se que muy tarde me di cuenta de lo que te hice
                      C#            D#m
Y hoy he venido para pedirte tu perdon

Intro

 D#m                C#            D#m II
Ya no llores mas mi vida trata de olvidar
                   C#       D#m II
Y comprende que la vida es asi
                      C#               D#m
Que unos rien y otros lloran y siempre al final
                      C#         D#m
Todos sufrimos para poder ser feliz

Intro

D#m             C#            D#m
Ven y dame otra noche con tus caricias
D#m               C#        D#m
Ven y besame amor mio como ayer

                  C#          D#m II
Nos amaremos ciegamente hasta olvidar
                  C#          D#m II
El pasado que una vez nos separo
                     C#           D#m
Y si llegar el nuevo dia sientes ganas de partir
                         C#           D#m
Puedes marchartes sin ninguna explicacion
                        C#        D#m II
Y si al llegar el nuevo dia no te quieres ir
                    C#         D#m
Yo te prometo vida mia desde aqui
                       C#
Que hasta que me quede fuerza
         D#m
Voy a seguir amandote
                         C#
Que hasta que me quede valor
                          D#m II
Voy a luchar por nuestro amor

outro
Добавлено: 27.04.2012
Другие материалы по этой песне:
  • Аккорды и текст

Страница создана 27.04.2012
http://primanota.ru/luis-miguel-del-amargue/otra-noche-chords.htm
Привет, Гость.
Предлагаем пройти революционный курс по гитаре.
Подарок от PrimaNota.Ru, забирай!