PrimaNota.ru - самый крупный в мире бесплатный архив песенных текстов, аккордов, табулатур и нот


Luis De Narvaez - Ya Se Asienta El Rey Ramiro - таба, видео

Регистрация Запомнить меня
Войти через:  Facebook Google Twitter Vk Yandex Mail.ru

Luis De Narvaez - Ya Se Asienta El Rey Ramiro - таба, видео

Печатать
Просмотров: 161
Новый альбом группы 'Черный Кузнец' по культовому сериалу 'Сверхъестественное'!
   Ya Se Asienta El Rey Ramiro  -  Romance I  -  Luys de Narváez
                              Libro V 
 de "Los Seys Libros del Delphin de Música de Cifra para Tañer Vihuela"
                         (Valladolid, 1538)

 Tabbed By Zanahorio    Fri 13 April 2007

 Also Capo on 2nd or 3rd fret can be used

 Moderato
1  .       .         .       .         .       .         .       .
e|----------------|------------------|------------------|-0--------0--2--3-|
B|-0------0---1---|--0-------0--1--3-|---0------3-------|----1--3----------|
G|-----2----------|-----0--2---------|------0-----------|------------------|
D|-0--------------|--0---------------|----------0-------|------------------|
A|------------0---|------------------|------------------|-3--------------3-|
E|-3---2--3-------|--3-------------3-|--------------3---|------------------|

5  .       .         .       .         .       .         .       .
e|--0-------------|--2------2---3----|-----3-----2------|----3-------------|
B|-----1----------|-----3---3---0----|-----2-----3------|----0---------3---|
G|--------0-------|--2----------0----|-----0-----2------|---------0--------|
D|------------2---|--0------0---2----|-----2-----0------|------------------|
A|----------------|------------------|------------------|------------------|
E|----------------|------------------|------------------|----3-------------|

9  .       .         .       .         .       .         .       .
e|---3-----3------|--2------0-2-3-5--|--2----------2----|------------------|
B|---0-----0------|-----2-3----------|-----3------------|-3--------0--2--3-|
G|----------------|------------------|---------2--------|-4--0--2----------|
D|---0-----0------|--0------------0--|-------------0----|------------------|
A|----------------|------------------|------------------|------------------|
E|---3-----3------|------------------|------------------|-3----------------|


13  .       .         .       .         .       .         .       .
e|----------------|-0-------0-2-3-5--|-3-5-3-2-0--------|--2------2---3----|
B|-0------3-------|---0-1-3----------|-----------3-1-0--|-----3---3---0----|
G|----0-----------|------------------|------------------|--2------2---0----|
D|--------0-------|------------------|------------------|--0------0---2----|
A|----------------|-3-----------3----|------------------|------------------|
E|-3----------3---|------------------|------------------|------------------|

17  .       .         .       .         .       .         .       .
e|------3----2----|----3-------------|---3------3-------|--2--2-4--5--3----|
B|------2----3----|----0--------3----|---0------0-------|------------------|
G|-----------2----|---------0--------|------------------|--2---------------|
D|-2----2----0----|------------------|---0------0-------|--0----------2----|
A|-2--------------|------------------|------------------|------------------|
E|-0--------------|----3-------------|---3------3-------|------------------|

21  .       .         .       .         .       .         .       .
e|-2--0-----------|------------------|------------------|------------------|
B|--------3---1---|-0--------0--2--3-|-0---------0------|-1-----0-1-0------|
G|----------------|----0--2----------|------0-----------|---0-2-------2-0--|
D|-0--------------|------------------|-----------0------|-3----------------|
A|----3---2---0---|------------------|------------------|------------------|
E|----------------|-3--------------3-|---------------3--|------------------|

25  .       .         .       .         .       .         .       .
e|----------------|------------------|------------------|---------0-2-3-2--|
B|-1-----1--------|-0-----0--1--3--1-|-0-------0--------|---0-1-3----------|
G|-2--------------|---0-2------------|---2-0------------|-0-----------0----|
D|----3-----------|------------------|-------4-2-0------|------------------|
A|-------3--------|------------------|-------------3-2--|-3-----------3----|
E|-----------1----|-3-----------3----|------------------|------------------|

29  .       .         .       .         .       .         .       .
e|-3-2-0-----------|---------2---3----|------3----2-----|---3-------3------|
B|-------3-1-3-1-0-|-----3-------0----|------2----3-----|---3--------------|
G|-----------------|--2----------0----|------0----2-----|---4---0----------|
D|-----------------|--0------0---2----|--2---2----0-----|------------------|
A|-----------------|------------------|--2--------------|------------------|
E|-----------------|------------------|--0--------------|---3--------------|

33  .       .         .       .         .       .         .       .
e|--3------3-------|----5-3-2-3-5-3---|-2-3-2-0---0------|-----------------|
B|--3------3-------|------------------|---------3---3-1--|-0---------------|
G|--4------4-------|-2----------------|-2----------------|-----0-----------|
D|-----------------|-0------0---------|-0----------------|-0-------0-------|
A|-----------------|------------------|------------------|-----------------|
E|--3------3-------|------------------|------------------|-------------3---|

37  .       .         .       .         .       .         .       .
e|--3--------------|---0-1-3-5-6-5-3--|-1-0-------0--2--|------------------|
B|--0---3---0------|-1----------------|-----3-1-3-------|-0---0-1-3-1-0----|
G|--------------0--|------------------|-----------------|---2-----0-----2--|
D|-----------------|-3----------------|-3---------------|------------------|
A|-----------------|------------------|-----------------|------------------|
E|-----------------|------------------|-----------------|-3----------------|

41  .       .         .       .         .       .         .       .
e|-----------------|-----------0------|---------0--------|-----------------|
B|--0--------------|-----0-1-3----1---|---0-1-3---3-1-0--|-------------0---|
G|--0---2---0------|-0-2--------------|-0----------------|-2-------2-------|
D|------3---2--4---|-2------------2---|------------------|-0---4---0-------|
A|-------------5---|------------------|-3----------------|-----------------|
E|-----------------|------------------|------------------|-------------3---|

45  .       .         .       .         .       .         .       .
e|------------------|------------------|-----------------|----------------||
B|----1-------------|------------------|-----------------|----------------||
G|-0-------2--------|---0--------------|-----------------|----------------||
D|----2----0---4----|------------------|-----------------|----------------||
A|------------------|------------------|-----------------|----------------||
E|------------------|---3--------------|-----------------|----------------||



  ************************************************************************

Добавлено: 05.04.2012
Вам также может быть интересно:
Другие материалы по этой песне:
  • Аккорды и текст

Страница создана 05.04.2012
http://primanota.ru/luis-de-narvaez/ya-se-asienta-el-rey-ramiro-chords.htm
Привет, Гость.
Предлагаем пройти революционный курс по гитаре.
Подарок от PrimaNota.Ru, забирай!