PrimaNota.ru - самый крупный в мире бесплатный архив песенных текстов, аккордов, табулатур и нот


Luigi Legnani - Etude - таба, видео

Регистрация Запомнить меня
Войти через:  Facebook Google Twitter Vk Yandex Mail.ru

Luigi Legnani - Etude - таба, видео

Печатать
Просмотров: 172
     Allegro con moto                                         
     H                E  E  E  E     E  E  E  E  E  E  E  E   
E||-------------------------------|--------------------------|
B||-------------------------------|-----3--3--3--3--3--3--3--|
G||-------------------------0--2--|--3--3--3--3--3--3--3--3--|
D||----------------------3--------|--------------------0-----|
A||-------------------------------|-----------0--1-----------|
E||-------------------------------|-----1--3-----------------|


  E  E  E  E  E  E  E  E     E  E  E  E  E  E  E  E   
--------------------------|--1--1--1--1--1--1--1--1--|
--1--1--1--1--1--------1--|--------------------------|
--2--2--2--2--2-----2-----|-----2--2--2--2-----2--2--|
--3--------------3--------|--------------3-----1-----|
--------------------------|--------0--3--------------|
--------------------------|-----1--------------------|


                                                   loco     
  E  E  E  E  E  E  E  E     S S S S S S S S E  E  E    E   
--------------------6--5--|--3------------------3--6----3--|
--6--6--6--6--6--6--------|----4---4---4-------------------|
--3--3--3--3--3-----------|------3---3-----3---------------|
--0-----------0-----------|--------------5-----------------|
--------------------------|------------------6-------------|
--------------------------|--------------------------------|


  S  S S S S S S S E  E  E  E     E  E  E  E  E  E  E  E   
-------------------------3-----|--0-----------------1-----|
--6p-3---3------------6-----6--|--------1--------4-----4--|
-------3-----3-----------------|-----3-----3--2-----------|
-----------3-----3-------------|--------------------------|
---------------5---------------|--------------------------|
-------------------6-----------|--------------------------|


  E  E  E  E  E  E  E  E     E  E  E  E  E  E  E  E   
--------------------------|-----3-----1--------------|
--3--------------4-----3--|-----------------4-----3--|
-----1--3--1--------------|-----3-----3-----5-----3--|
--------------5-----3-----|--1-----0-----------------|
--------------------------|--------------0-----1-----|
--------------------------|--------------------------|


  E  E  E  E  E  E  E  E     E  E  E  E  E  E  E  E   
--------------------------|--------------------------|
--3-----------1-----------|-----3--3--3--3--3--3--3--|
--3-----------2-----0--2--|--3--3--3--3--3--3--3--3--|
-----3--0--------3--------|--------------------0-----|
-----------1--------------|-----------0--1-----------|
--------------1-----------|-----1--3-----------------|


  E  E  E  E  E  E  E  E     E  E  E  E  E  E  E  E   
--------------------------|--1--1--1--1--1--1--1--1--|
--1--1--1--1--1--------1--|--------------------------|
--2--2--2--2--2-----2-----|-----2--2--2--2-----2--2--|
--3--------------3--------|--------------3-----1-----|
--------------------------|--------0--3--------------|
--------------------------|-----1--------------------|


  E  E  E  E  E  E  E  E     E  E  E  E  S. E  T E  E   
-----------------------1--|--3-------------------------|
--6--6--6--6--6--3--4-----|-----------------1----3--4--|
--3--3--3--3--3-----------|-----0----------------------|
--0-----------0-----------|--------1-------------------|
--------------------------|-----------3--0-------------|
--------------------------|----------------------------|


  E  E  E  E  S. E  T E  E     E  E  E  E  S. E  T E  E   
--1-------------------------|----------------------1-----|
----------------------1--3--|--4--------------1-------4--|
-----------------3----------|----------------------------|
-----3--0-------------------|-----1----------------------|
-----------1----------------|--------3--0----------------|
--------------3-------------|--------------1-------------|


  E  E  E  E  E  E  E  E     E  E  E  E  E  E  E  E   
--------------------------|--------------------------|
--3-----------------------|--------------2--2--2--2--|
-----3--3--3--3--3--3--3--|--3--3--3--3--3--3--3--3--|
-----0--0--0--1--1--3--3--|--5--5--5--5--2--2--2--2--|
-----1--1--1--3--3--5--5--|--6--6--6--6--------------|
--------------------------|--------------0--0--0--0--|


  E  E  E  E  E  E  E  E     E  E  E  E  E  E  E  E   
--------------------------|--------------0--0--0--0--|
--3--3--3--3--3--3--3--3--|--4--4--4--4--------------|
--3--3--3--3--3--3--3--3--|--3--3--3--3--3--3--3--3--|
--3--3--3--3--3--3--3--3--|--5--5--5--5--4--4--4--4--|
--------------------------|--------------------------|
--1--1--1--1--1--1--1--1--|--3--3--3--3--2--2--2--2--|


  E  E  E  E  E  E  E  E     E  E  E  E  E  E  E  E   
--1--1--1--1--3--3--3--3--|-----1--1--1-----5--5--5--|
--3--3--3--3--2--2--2--2--|-----3--3--3-----4--4--4--|
--3--3--3--3--3--3--3--3--|-----3--3--3-----5--5--5--|
--------------------------|--------------------------|
--------------------------|--------------------------|
--1--1--1--1--0--0--0--0--|--1-----------1-----------|


  E  E  E  E  E  E  E  E     S  S S  S S  S S  S E  E  E  E   
--6-----------------------|-------------------------8--------|
--6--------------6--6--6--|--6h-8-6h-8-6h-8-6h-8-6--------6--|
--7--------------7--7--7--|--8----8----8----8----8--8-----8--|
-----8-----8-----8-----8--|-------7---------7-------7-----7--|
--------------------------|----------------------------------|
--6-----6-----6-----6-----|--6---------6---------6-----6-----|


  S  S S  S S  S S  S E  E  E  E     S  S S  S S  S S  S E  E  E  E   
-------------------------6--------|-------------------------8--------|
--6h-8-6h-8-6h-8-6h-8-6--------6--|--6h-8-6h-8-6h-8-6h-8-6--------6--|
--7----7----7----7----7--7-----7--|--8----8----8----8----8--8-----8--|
-------8---------8-------8-----8--|-------7---------7-------7-----7--|
----------------------------------|----------------------------------|
--6---------6---------6-----6-----|--6---------6---------6-----6-----|


  E  S  S S S  S S E  E  E  E     E  S  S S S  S S E  E  E  E   
--6--8-10-8-6---------1--1--1--|--6--8-10-8-6---------1--1--1--|
--6-----------10-8-6--1--1--1--|--6-----------10-8-6--1--1--1--|
--7-------------------2--2--2--|--7-------------------2--2--2--|
-------------------------------|-------------------------------|
-------------------------0-----|-------------------------0-----|
--6-------------------1-----1--|--6-------------------1-----1--|


           loco                                         
  <                                                     
  E  E  E  E    E  E  E  E     E  E  E  E  E  E  E  E   
-----6-----2-------3-----4--|--3--3--3--3--3--3--3--3--|
-----6-----1-------3-----3--|--4--4--4--4--2--2--2--2--|
-----7-----2-------3-----3--|--3--3--3--3--3--3--3--3--|
----------------------0-----|--------------2--2--2--2--|
-----L--0-------------------|--6--6--6--6--------------|
--6-------------3-----------|--------------------------|


  E  E  E  E  E  E  E  E     S S E  E  E  E  E  E  E   
--------------5--5--5--5--|--6------------------------|
--6--6--6--6--6--6--6--6--|--6---------------6--6--6--|
--7--7--7--7--5--5--5--5--|--7---------------7--7--7--|
--8--8--8--8--------------|------8-----8-----8-----8--|
--8--8--8--8--8--8--8--8--|---------------------------|
--------------------------|--6------6-----6-----6-----|


  S  S S  S S  S S  S E  E  E  E     S  S S  S S  S S  S E  E  E  E   
-------------------------8--------|-------------------------6--------|
--6h-8-6h-8-6h-8-6h-8-6--------6--|--6h-8-6h-8-6h-8-6h-8-6--------6--|
--8----8----8----8----8--8-----8--|--7----7----7----7----7--7-----7--|
-------7---------7-------7-----7--|-------8---------8-------8-----8--|
----------------------------------|----------------------------------|
--6---------6---------6-----6-----|--6---------6---------6-----6-----|


  S  S S  S S  S S  S E  E  E  E     E  S  S S S  S S S S E  E  E   
-------------------------8--------|--6--8-10-8-6----------1--1--1--|
--6h-8-6h-8-6h-8-6h-8-6--------6--|--6-----------10-8-6---1--1--1--|
--8----8----8----8----8--8-----8--|--7--------------------2--2--2--|
-------7---------7-------7-----7--|--------------------------------|
----------------------------------|--------------------------0-----|
--6---------6---------6-----6-----|--6--------------------1-----1--|


  E  S  S S S  S S S S E  E  E     E  E  E  E  E  E  E  E   
--6--8-10-8-6----------1--1--1--|-----6-----2-----3-----4--|
--6-----------10-8-6---1--1--1--|-----6-----1-----3-----3--|
--7--------------------2--2--2--|-----7-----2-----3-----3--|
--------------------------------|--------------------0-----|
-----------------------L--0-----|--------0-----------------|
--6--------------------1-----1--|--6-----------3-----------|


  E  E  E  E  E  E  E  E     E  E  E  E  E  E  E  E   
--3--3--3--3--3--3--3--3--|--------------5--5--5--5--|
--4--4--4--4--2--2--2--2--|--6--6--6--6--6--6--6--6--|
--3--3--3--3--3--3--3--3--|--7--7--7--7--5--5--5--5--|
--------------2--2--2--2--|--8--8--8--8--------------|
--6--6--6--6--------------|--8--8--8--8--8--8--8--8--|
--------------------------|--------------------------|


  S S E  E  E  E  E  E  E     E  E  E  E  S. T E  E  E   
--6---------------5--5--5--|--6--------------5----5--5--|
--6---------------7--7--7--|--6----------------7--7--7--|
--7---------------8--8--8--|--7----------------8--8--8--|
------8-----8--------------|-----8-----8----------------|
---------------------------|----------------------------|
--6------6-----7-----7-----|--6-----6-----7-------7-----|


  E  E  E  E  E  E  E  E     E  E  E  E  E  E  E  E     Q    Q    Q    Q     
--6--6--6--6--6--6--6--6--|--6--6--6--6--6--6--6--6--|--6----6--------------|
--6--6--6--6--6--6--6--6--|--6--6--6--6--6--6--6--6--|--6----6----6----3----|
--7--7--7--7--7--7--7--7--|--7--7--7--7--7--7--7--7--|--7----7----7----3----|
-----8--7--8-----8--0-----|-----8--7--8-----8--0-----|-------8----8----3----|
-----L--------8--------8--|--------------8--------8--|------------8----5----|
--6-----------------------|--6-----------------------|--6-------------------|


  Q    Q    Q    Q       H        H          
------------6---------|--------------------||
------------3---------|--------------------||
--3---------3---------|--3-----------------||
--3---------3---------|--3-----------------||
--5---------5---------|--5-----------------||
--6---------6---------|--6-----------------||
Добавлено: 04.03.2012
Другие материалы по этой песне:
  • Аккорды и текст

Страница создана 04.03.2012
http://primanota.ru/luigi-legnani/etude-chords.htm
Привет, Гость.
Предлагаем пройти революционный курс по гитаре.
Подарок от PrimaNota.Ru, забирай!