PrimaNota.ru - самый крупный в мире бесплатный архив песенных текстов, аккордов, табулатур и нот


Ludwig Hirsch - Komm Grosser Schwarzer Vogel - таба, видео

Регистрация Запомнить меня
Войти через:  Facebook Google Twitter Vk Yandex Mail.ru

Ludwig Hirsch - Komm Grosser Schwarzer Vogel - таба, видео

Печатать
Просмотров: 185
Song Title:Komm, grosser schwarzer Vogel
Artist:Ludwig Hirsch
Album:Komm grosser schwarzer Vogel
Transcribed by:juizad@hotmail.com
-------------------------------------------------------------------
Key: p- pull off
-------------------------------------------------------------------
 


Intro:

|--0-------|-----0-3-|--3-----|-------|--0------0----|-2------3----|
|----1-----|----1----|--3--3--|---3---|--1--1---1--1-|-3--3---0--0-|
|------0---|---0-----|------2-|--0----|------0------2|-----2------0|
|--3-------|-3-------|--2-----|-2-----|---------0----|-------------|
|----------|---------|--------|-------|--3-----------|--------3----|
|----------|---------|--------|-------|--------------|-------------|

|--3---1p0---|
|-----------3|
|------------|
|------------|
|------------|
|------------|

Verse:

|--0-------|-----0-3-|--3-----|----0---|----------0-|--------------|
|----1-----|----1----|--3--3--|---3--3-|--1--------1|-0-----1-1---3|
|------0---|---0-----|------2-|--0-----|---2-----2--|--0-----2-----|
|-------2--|---------|--------|--------|----2-------|---2---3------|
|--3-------|-3-------|--2-----|-2------|--0-----0---|--------------|
|----------|---------|--------|--------|------------|-0-----------3|
Komm, grosser schwarzer...

play 2 times

Chourus:

|-0--3|----1------1--|----1------1--|----0------0--|----0------0--|
|-----|---1-1----1-1-|---1-1----1-1-|---1-1----1-1-|---1-1----1-1-|
|-----|--2---2--2---2|--2---2--2---2|--0---0--0---0|--0---0--0---0|
|-----|-3------3-----|-3------3-----|--------------|--------------|
|-----|--------------|--------------|-3------3-----|-3------3-----|
|-----|--------------|--------------|--------------|--------------|
Und dann flieg'n ma...

|----3--|----3--|----3--|----3--|----0--|----0--|----0--|----0--|
|---0-0-|---0-0-|---0-0-|---0-0-|---1-1-|---1-1-|---1-1-|---1-1-|
|--0---0|--0---0|--0---0|--0---0|--0---0|--0---0|--0---0|--0---0|
|-------|-------|-------|-------|-------|-------|-------|-------|
|-------|-------|-------|-------|-3-----|-3-----|-3-----|-3-----|
|-3-----|-3-----|-3-----|-3-----|-------|-------|-------|-------|


|----1--|----1--|----1--|----1--|----0--|----0--|----0--|----0--|
|---1-1-|---1-1-|---1-1-|---1-1-|---1-1-|---1-1-|---1-1-|---1-1-|
|--2---2|--2---2|--2---2|--2---2|--0---0|--0---0|--0---0|--0---0|
|-3-----|-3-----|-3-----|-3-----|-------|-------|-------|-------|
|-------|-------|-------|-------|-3-----|-3-----|-3-----|-3-----|
|-------|-------|-------|-------|-------|-------|-------|-------|


|----3--|----3--|----3--|----3--|----0--|----0--|
|---0-0-|---0-0-|---0-0-|---0-0-|---1-1-|---1-1-|
|--0---0|--0---0|--0---0|--0---0|--0---0|--0---0|
|-------|-------|-------|-------|-------|-------|
|-------|-------|-------|-------|-3-----|-3-----|
|-3-----|-3-----|-3-----|-3-----|-------|-------|
...i wead endlich kapier'n...

|--0-------|-----0-3-|--3-----|-------|--0------0----|-2------3----|
|----1-----|----1----|--3--3--|---3---|--1--1---1--1-|-3--3---0--0-|
|------0---|---0-----|------2-|--0----|------0------2|-----2------0|
|-------2--|---------|--------|-------|--------------|-0-----------|
|--3-------|-3-------|--2-----|-2-----|---------0----|-------------|
|----------|---------|--------|-------|--3-----------|--------3----|

|--3---1p0---|
|-----------3|
|------------|
|------------|
|------------|
|------------|

Vers
Chorus
Vers
2xChorus
     
Добавлено: 07.11.2013
Другие материалы по этой песне:
  • Аккорды и текст

Страница создана 07.11.2013
http://primanota.ru/ludwig-hirsch/komm-grosser-schwarzer-vogel-chords.htm
Привет, Гость.
Предлагаем пройти революционный курс по гитаре.
Подарок от PrimaNota.Ru, забирай!