PrimaNota.ru - самый крупный в мире бесплатный архив песенных текстов, аккордов, табулатур и нот


Ludovico Einaudi - Fly - таба, видео

Регистрация Запомнить меня
Войти через:  Facebook Google Twitter Vk Yandex Mail.ru

Ludovico Einaudi - Fly - таба, видео

Печатать
Просмотров: 4246
Уроки эстрадного вокала в Санкт-Петербурге
Авторы музыки: Ludovico Einaudi

e|--------0--------0---------0---------0--------1--------1--------1--------1-|
B|-----1--------1---------1---------1--------1--------1--------1--------1----|
G|--2--------2--------2----------2--------2--------2--------2--------2-------|
D|---------------------------------------------------------------------------|
A|---------------------------------------------------------------------------|
E|---------------------------------------------------------------------------|

e|--------3--------3--------3--------3--------1--------1--------1--------1---|
B|-----1--------1--------1--------1--------1--------1--------1--------1------|
G|--2--------2--------2--------2--------2--------2--------2--------2---------|
D|---------------------------------------------------------------------------|
A|---------------------------------------------------------------------------|
E|---------------------------------------------------------------------------|

e|--------0--------0---------0---------0--------1--------1--------1--------1-|
B|-----1--------1---------1---------1--------1--------1--------1--------1----|
G|--2--------2--------2----------2--------2--------2--------2--------2-------|
D|---------------------------------------------------------------------------|
A|---------------------------------------------------------------------------|
E|---------------------------------------------------------------------------|

e|--------3--------3--------3--------3--------1--------1--------1--------1---|
B|-----1--------1--------1--------1--------1--------1--------1--------1------|
G|--2--------2--------2--------2--------2--------2--------2--------2---------|
D|---------------------------------------------------------------------------|
A|---------------------------------------------------------------------------|
E|---------------------------------------------------------------------------|

e|--------8--------8--------8--------8--------5--------5--------5--------5/7-|
B|---------------------------------------------------------------------------|
G|-----5--------5--------5--------5--------2--------2--------2--------2------|
D|---------------------------------------------------------------------------|
A|--0--------0--------0--------0--------0--------0--------0--------0---------|
E|---------------------------------------------------------------------------|

e|--------7--------7--------7--------7--------5--------5--------5--------5---|
B|---------------------------------------------------------------------------|
G|-----4--------4--------4--------4--------2--------2--------2--------2------|
D|---------------------------------------------------------------------------|
A|--0--------0--------0--------0--------0--------0--------0--------0---------|
E|---------------------------------------------------------------------------|

e|--------8--------8--------8--------8--------5--------5--------5--------5/7-|
B|---------------------------------------------------------------------------|
G|-----5--------5--------5--------5--------2--------2--------2--------2------|
D|---------------------------------------------------------------------------|
A|--0--------0--------0--------0--------0--------0--------0--------0---------|
E|---------------------------------------------------------------------------|

e|--------7--------7--------7--------7--------5--------5--------5--------5---|
B|---------------------------------------------------------------------------|
G|-----4--------4--------4--------4--------2--------2--------2--------2------|
D|---------------------------------------------------------------------------|
A|--0--------0--------0--------0--------0--------0--------0--------0---------|
E|---------------------------------------------------------------------------|


e|----------12----------12----------12----------12----------13----------13----|
B|------13----------13----------13----------13----------13----------13--------|
G|--14----------14----------14----------14----------14----------14------------|
D|----------------------------------------------------------------------------|
A|----------------------------------------------------------------------------|
E|----------------------------------------------------------------------------|

e|-------13----------13-|
B|---13----------13-----|
G|-14----------14-------|
D|----------------------|
A|----------------------|
E|----------------------|

e|----------15----------15----------15----------15----------13----------13----|
B|------13----------13----------13----------13----------13----------13--------|
G|--14----------14----------14----------14----------14----------14------------|
D|----------------------------------------------------------------------------|
A|----------------------------------------------------------------------------|
E|----------------------------------------------------------------------------|

e|-------13----------13-|
B|---13----------13-----|
G|-14----------14-------|
D|----------------------|
A|----------------------|
E|----------------------|

e|----------12----------12----------12----------12----------13----------13----|
B|------13----------13----------13----------13----------13----------13--------|
G|--14----------14----------14----------14----------14----------14------------|
D|----------------------------------------------------------------------------|
A|----------------------------------------------------------------------------|
E|----------------------------------------------------------------------------|

e|-------13----------13-|
B|---13----------13-----|
G|-14----------14-------|
D|----------------------|
A|----------------------|
E|----------------------|

e|----------15----------15----------15----------15----------13----------13----|
B|------13----------13----------13----------13----------13----------13--------|
G|--14----------14----------14----------14----------14----------14------------|
D|----------------------------------------------------------------------------|
A|----------------------------------------------------------------------------|
E|----------------------------------------------------------------------------|

e|-------13----------13-12-10-12-------|
B|---13----------13--------------13-10-|
G|-14----------14----------------------|
D|-------------------------------------|
A|-------------------------------------|
E|-------------------------------------|
Добавлено: 09.09.2013
Другие материалы по этой песне:

Страница создана 06.07.2013
http://primanota.ru/ludovico-einaudi/fly-chords.htm
Привет, Гость.
Предлагаем пройти революционный курс по гитаре.
Подарок от PrimaNota.Ru, забирай!