PrimaNota.ru - самый крупный в мире бесплатный архив песенных текстов, аккордов, табулатур и нот


Ludo - Summertime - текст песни, таба, видео

Регистрация Запомнить меня
Войти через:  Facebook Google Twitter Vk Yandex Mail.ru

Ludo - Summertime - текст песни, таба, видео

Печатать
Просмотров: 134
Уроки эстрадного вокала в Санкт-Петербурге
-------------------------------------------------------------------------------
                            Summertime - Ludo
-------------------------------------------------------------------------------


Sorry for such a short tab, it goes up until he starts the hammer ons. I will try and 
the song when I find the time.


e|-----7-----7-----7-----7-----7-----7-----7-----7------|
B|------8-----8-----8-----8-----8-----8-----8-----8-----|
G|------------------------------------------------------|
D|---5-----5-----5-----5-----4-----4-----4-----4--------|
A|------------------------------------------------------|
E|------------------------------------------------------|

e|-----5-----5-----5-----5-----3-----3-----3-----3------|
B|------6-----6-----6-----6-----5-----5-----5-----5-----|
G|------------------------------------------------------|
D|---3-----3-----3-----3-----2-----2-----2-----2--------|
A|------------------------------------------------------|
E|------------------------------------------------------|
Добавлено: 21.07.2012
Вам также может быть интересно:
Другие материалы по этой песне:
  • Аккорды и текст

Страница создана 21.07.2012
http://primanota.ru/ludo/summertime-chords.htm
Привет, Гость.
Предлагаем пройти революционный курс по гитаре.
Подарок от PrimaNota.Ru, забирай!