PrimaNota.ru - самый крупный в мире бесплатный архив песенных текстов, аккордов, табулатур и нот


Ludo - Save Our City - текст песни, таба, видео

Регистрация Запомнить меня
Войти через:  Facebook Google Twitter Vk Yandex Mail.ru

Ludo - Save Our City - текст песни, таба, видео

Печатать
Просмотров: 175
                INTRO
 |Guitar 1 (staccato)               |
e|----0---0---0---0---0---0---0---0-|
b|---10--10--10--10--10--10--10--10-|
G|---10--10--10--10--10--10--10--10-|
D|----------------------------------|
A|----------------------------------|
E|----------------------------------|
 |                                  |
 |Guitar 2  (staccato)              |
e|----x---x---x---x---0---0---0---0-|
b|----x---x---x---x---6---6---6---6-|
G|----------------------------------|
D|----------------------------------|
A|----------------------------------|
E|----------------------------------|

                               VERSE

 |Gtr 1 (staccato)                                                     |
e|-------0---0---0---0---0---0---0---0--10--10--12--12--10--10--10---9-|
b|------10--10--10--10--10--10--10--10---8---8--11--11--11--10--10--10-|
G|------10--10--10--10--10--10--10--10------------------10--10---9---9-|
D|---------------------------------------------------------------------|
A|---------------------------------------------------------------------|
E|---------------------------------------------------------------------|
 |                                                                     |
 |Gtr2 (staccato)                                                      |
e|-------0---0---0---0---0---0---0---0---x---x---0---0-----------------|
b|-------6---6---6---6---x---x---x---x---x---x--11--11-----------------|
G|-------7---7---7---7--10--10--10--10--12--12--12--12-----------6---6-|
D|-------7---7---7---7--10--10--10--10--12--12-----------8---8---6---6-|
A|-------5---5---5---5---8---8---8---8--10--10-----------8---8---4---4-|
E|-------------------------------------------------------6---6---------|
 |       Dm              F               Gm              Bb      C#    |
 |                                                                     |
1|   Mr. Mayor...        burns...     ...marching,  they close   on the|
2|Little boy, I'm just a man...          servant       a-gainst...     |

 |Gtr 1 (legato)                                                       |
e|---------------------------------------------------------------------|
b|---------------------------------------------------------------------|
G|---------------------------------------------------------------------|
D|---------------------------7---5-------------------------------------|
A|-------5---0---4---7---------------3---5---0---4---7-----------------|
E|-----------------------6---------------------------------------------|
 |                                                                     |
 |Gtr2 (staccato)                                                      |
e|-------5---5---5---5---6---6---1---1---5---5---5---5-----------------|
b|-------6---6---5---5---6---6---1---1---6---6---5---5-----------------|
G|-------7---7---6---6---7---7---2---2---7---7---6---6-----------------|
D|-------7---7---5---5---8---8---3---3---7---7---5---5-----------------|
A|-------5---5---7---7---8---8---3---3---5---5---7---7-----------------|
E|---------------5---5---6---6---1---1-----------5---5-----------------|
 |       Dm      A7      Bb      F       Dm      A7                    |
 |                                                                     |
1|       square. Families...look down... souls,  huddled in camps      |
2|tyrant God...  allied...   sal-vation...   pro-tecting the city      |

 |Gtr 1 (legato)                                                       |
e|---------------------------------------------------------------------|
b|---------------------------------------------------------------------|
G|--------------------------10-10-10-10-10-10--------------------------|
D|-------8------------------10-10-10-10-10-10--------------------------|
A|-------8--8--8--8--8--8----8--8--8--8--8--8--10----10----10---12-10--|
E|-------6--6--6--6--6--6--------------------------9-----9-----9-----10|
 |                                                                     |
 |Gtr2 (legato)                                                        |
e|-------6--6--6--6--6--6----------------------5-5-5-5-5-5-5-5-5-5-5-5-|
b|-------6--6--6--6--6--6----------------------5-5-5-5-5-5-5-5-5-5-5-5-|
G|-------7--7--7--7--7--7---10-10-10-10-10-10--6-6-6-6-6-6-6-6-6-6-6-6-|
D|-------8--8--8--8--8--8---10-10-10-10-10-10--5-5-5-5-5-5-5-5-5-5-5-5-|
A|-------8--8--8--8--8--8----8--8--8--8--8--8--7-7-7-7-7-7-7-7-7-7-7-7-|
E|-------6--6--6--6--6--6----------------------5-5-5-5-5-5-5-5-5-5-5-5-|
 |       Bb                  F                 A7                      |
 |                                                                     |
1|on the old marble steps of City Hall,        faith in their God,     |
2|     a-gainst...    heaven sent, but...    a-gain,                   |


REPEAT INTRO
 |Guitar 1                                [ 1st verse only ]    |
e|-------------------------0---0---0---0--[-0---0---0---0-----]-|
b|------------------------10--10--10--10--[10--10--10--10-----]-|
G|------------------------10--10--10--10--[10--10--10--10-----]-|
D|--------------------------------------------------------------|
A|--------------------------------------------------------------|
E|--------------------------------------------------------------|
 |                                                              |
 |Guitar 2                                 [ 1st verse only ]   |
e|-------------------------0---0---0---0---[0---0---0---0-----]-|
b|-------------------------6---6---6---6---[6---6---6---6-----]-|
G|--------------------------------------------------------------|
D|--------------------------------------------------------------|
A|--------------------------------------------------------------|
E|--------------------------------------------------------------|
1|that's all that they've got.             [          A-cross ] |
2|            this is the end.  Oh I'm just[                  ] |

 |Gtr 1 (staccato)                                                      |
e|-------0---0---0---0---0---0---0---0--10--10--12--12--10--10---10---9-|
b|------10--10--10--10--10--10--10--10---8---8--11--11--11--10---10--10-|
G|------10--10--10--10--10--10--10--10------------------10--10----9---9-|
D|----------------------------------------------------------------------|
A|----------------------------------------------------------------------|
E|----------------------------------------------------------------------|
 |                                                                      |
 |Gtr2 (staccato)                                                       |
e|-------0---0---0---0---0---0---0---0---x---x---0---0------------------|
b|-------6---6---6---6---x---x---x---x---x---x--11--11------------------|
G|-------7---7---7---7--10--10--10--10--12--12--12--12------------6---6-|
D|-------7---7---7---7--10--10--10--10--12--12-----------8---8----6---6-|
A|-------5---5---5---5---8---8---8---8--10--10-----------8---8----4---4-|
E|-------------------------------------------------------6---6----------|
 |       Dm              F               Gm              Bb       C#    |
 |                                                                      |
1|the room,   beyond the pane         ...churning,    ...burning, hail..|
2|     a man.         My time has come...Simius,may he deliver us from..|

 |Gtr 1 (legato)                                                        |
e|--------------10----------10------------------10----------10---6-5-3-1|
b|-----------10----10----10------------------10----10----10-------------|
G|--------10----------10------------------10----------10----------------|
D|----------------------------------------------------------------------|
A|----------------------------------------------------------------------|
E|----------------------------------------------------------------------|
 |                                                                      |
 |Gtr2 (legato)                                                         |
e|--5------------------------------------------------------5------------|
b|--6------------------6---------------6-------------------6------------|
G|--7------------------7---------------7-------------------7------------|
D|--7------------------7---------------7-------------------5------------|
A|--5------------------3---------------x-------------------x------------|
E|-------------------------------------6-------------------7------------|
 |  Dm                 Dm/C            Dm/Bb               G9/B         |
 |                                                                      |
1|      The moon is as blood...    the soldiers  ...in the mud.         |
2| ...a blast like the sun...       un-wrapped...   of his gun.         |


                           CHORUS 1{and 2}
 |Gtr2 (clean, muted)                                |
e|---------------------------------------------------|
b|---------------------------------------------------|
G|---------------------------------------------------|
D|---------------------------------------------------|
A|------------------------5^^^^^5^^^^^5^^^^^5^^^^^^--|
E|1^^^^^1^^^^^1^^^^^0^^^^^---------------------------|
 |F                 F/E   F/D                        |
 |                                                   |
 |Save our city           Keep our souls, Lord       |


                                    {2nd chorus only}
                                    [1st chorus only]
 |Gtr2 (clean, muted)                       [(dirty)]|
e|---------------------------------------------------|
b|---------------------------------------------------|
G|---------------------------------------------------|
D|---------------------------------------------------|
A|3^^^^^^3^^^^^3^^^^^3^^^^^1^^^^^0^^^^^------[4^^^^^]|
E|-------------------------------------3^^^^^{3^^^^^}|
 |F/C                      Bb    F/A   Gm    [A7/C#] |
 |                                           {Gm}    |
 |Through the rapture of this world.                 |

On CHORUS 2, 4 and 5, Guitar 1 lets echoed F-octaves ring.
It does not play on the CHORUS 1 or 2.

               POST-CHORUS 1 (staccato chords)
Dm   A7  Dm   E   Fm   C#   F#   A7

               POST-CHORUS 2

 |Gtr 1 (legato)                                                        |
e|----------------------------------------------------------------------|
b|10------8--11----------10------8-10-8-------6-------------------------|
G|-x------x---x-----------x------x--x-x-------x-------------------------|
D|-7------5---8-----------7------5--7-5-------3-------------------------|
A|----------------------------------------------------------------------|
E|----------------------------------------------------------------------|
 |                                                                      |
 |                                                                      |
 |Gtr 2 (legato)                                                        |
e|----------------------------------------------------------------------|
b|----------------------------------------------------------------------|
G|----------------------------------------------------------------------|
D|----------------------------------------------------------------------|
A|3^^^^^3^^^^^4^^^^^4^^^^^3^^^^^3^^^^^2^^^^^2-1^^^^---------------------|
E|1^^^^^1^^^^^1^^^^^1^^^^^1^^^^^1^^^^^1^^^^^1-1^^^^---------------------|
 |F            C#         F/C       F/B       Bb                        |


 |Gtr 1 (legato)                                                          |
e|------------------------------------------------------------------------|
b|10------8--11----------10------8-10-8------------------6-8-6----------5-|
G|-x------x---x-----------x------x--x-x------------------x-x-x----------x-|
D|-7------5---8-----------7------5--7-5------------------3-5-3----------2-|
A|------------------------------------------------------------------------|
E|------------------------------------------------------------------------|
 |                                                                  (ring)|
 |                                                                        |
 |Gtr 2 (legato)                                                          |
e|----------------------------------------------------------6^^^^^6^^^^^5-|
b|----------------------------------------------------------6^^^^^6^^^^^5-|
G|10^^^^^12^^14^^10^^^^^12^^14^^10^^^^^10^^^^^--------------7^^^^^7^^^^^6-|
D|10^^^^^12^^14^^10^^^^^12^^14^^10^^^^^10^^^^^10^^^^^10^^^^^8^^^^^8^^^^^5-|
A|-8^^^^^10^^12^^-8^^^^^10^^12^^-8^^^^^-8^^^^^-8^^^^^-8^^^^^8^^^^^8^^^^^7-|
E|---------------------------------------------7^^^^^-7^^^^^6^^^^^6^^^^^5-|
 |F              C#             F/C            F/B          Bb          A7|
 |                                                                  (ring)|

                            ZOMBIE THEME

 |Gtr 1 (legato)                                                        |
e|------------------------------------------1-3-1-----------------------|
b|--------------------------------------3-5-------5-2---1-0-------------|
G|----------------------------------------------------2-----0-3[2(ring)]|
D|-------------------------------------------------------------{3(ring)}|
A|----------------------------------------------------------------------|
E|----------------------------------------------------------------------|
 |                                                                      |
 |                                                       {2nd time only}|
 |Gtr 2 (legato)                                         [1st time only]|
e|----------------------------------------------------------------------|
b|----------------------------------------------------------------------|
G|----------------------------------------------------------------------|
D|----------------------------------------------------------------------|
A|-5-4-5-7-5-4-0---0-------5(ring)------5-4-5-7-5-4-0---0------[5(ring)]|
E|---------------0---3-0-3----------------------------0---3-0-3{1(ring)}|
 |                                                                      |
1|Fought...    king...     boiled...The dragon...   calls...   more.    |
2|Cursed...    flesh...    curled...    eat... them in...      bones.   |

                        CHORUS 3 (same as CHORUS 1)
                        CHORUS 4, 5 (same as CHORUS 2)

                        CHORUS 6
 |Gtr2 (legato)     |
e|---1---1---1---1--|
b|--1---1---1---1---|  repeat 4 more times over the chords below
G|------------------|
D|-3---3---3---3----|
A|------------------|
E|------------------|
 | F                |   F/A   F/D   F/Bb   F/C

 |Gtr2 (legato)                                                           |
e|---1---1---1---1-5^^^^^5^^^^^-------------------------------------------|
b|--2---2---2---2--6^^^^^6^^^^^-------------------------------------------|
G|-----------------7^^^^^7^^^^^8^^^^^8^^^^^8^^^^^8^^^^^-------------------|
D|-3---3---3---3---7^^^^^7^^^^^8^^^^^8^^^^^8^^^^^8^^^^^8^^^^^8^^^^^8^^^^^8|
A|-----------------5^^^^^5^^^^^6^^^^^6^^^^^6^^^^^6^^^^^8^^^^^8^^^^^8^^^^^8|
E|-----------------5^^^^^5^^^^^6^^^^^6^^^^^6^^^^^6^^^^^6^^^^^6^^^^^6^^^^^6|
 | C#              Dm          Eb                      Bb

On CHORUS 6, Guitar 1 plays echoed C-octaves until the C# chord, where it plays 
then D over Dm, then Eb over Eb, and finally F over Bb.


                            CHORUS 7
F     F/E  F/D       F/C       Bb  Bb/A  Gm  C

OUTRO
 |Gtr 1 (legato)                                                         |
e|-----------------------------------------------------------------------|
b|-----------------------------------------------------------------------|
G|10--9--7--5--7--5--7--9-10--9--7--5--7--5--7--9-10--9-10-12-13-12-13-15|
D|-x--x--x--x--x--x--x--x--x--x--x--x--x--x--x--x--x--x--x--x--x--x--x--x|
A|-8--7--5--3--5--3--5--7--8--7--5--3--5--3--5--7--8--7--8-10-11-10-11-13|
E|-----------------------------------------------------------------------|
 | F/A         Bb          F/C         Bb          Dm          Bbm       |


 |Gtr 1 (legato)                                                         |
e|------------------12----13----17----17---------------------------------|
b|13----------14-----x-----x-----x-----x---------------------------------|
G|-x-----------x-----9----10----14----14---------------------------------|
D|10----------11---------------------------------------------------------|
A|-----------------------------------------------------------------------|
E|-----------------------------------------------------------------------|
 | F/C         Bbm                     F(ring)                           |

 |Gtr 1                                                                  |
 |(weave pick between three strings & strike pick w/ finger to make bell)|
e|-------------------------------------------------------------------------|
b|----___------------------------------------------------------------------|
G|---/   ------------------------------------------------------------------|
D|-------------------------------------------------------------------------|
A|----_/-------------------------------------------------------------------|
E|-------------------------------------------------------------------------|
 |                                                                       |
 |Gtr 2(legato)                                                          |
e|-----------------------------------------------------------------------|
b|-----1-2-1----------1-2-1----------1-2-1----------1-2-1----------------|
G|---2-------2------2-------2------2-------2------2-------2--------------|
D|-----------------------------------------------------------------------|
A|-----------------------------------------------------------------------|
E|-1-----------1--1-----------1--1-----------1--1------------------------|

Lyrics:
Save Our City
Words & Music by Andrew Volpe

INTRO
VERSE 1
"Mr. Mayor, the mission burns
the zombies are marching, they close on the square
Families are cold, look down at their souls
huddled in camps on the old marble steps of City Hall
Faith in their God, that's all that they've got."
Across the room, beyond the pane
the whole world is churning, bleeding and burning
hailstorms and ash
The moon is as blood
over the soldiers who sag in the mud.

CHORUS 1
Save our city
Keep our souls, Lord
Through the rapture
of this world.

POST-CHORUS 1

VERSE 2
"Little boy, I'm just a man
a mere civil servant, against this tyrant God
I've allied with our King, salvation he brings
protecting the city against all the troops Heaven sent
but the dead walk again, this is the end.
Oh I'm just a man, my time has come
Long live King Simius! May he deliver us
from this nightmare!"
And with a blast like the sun
his lips are unwrapped from the barrel of his gun.

CHORUS 2

POST-CHORUS 2

ZOMBIE THEME
Fought and fell for our great king
We burned alive and boiled
The dragon, red and wrathful calls
We rise and march once more.
Cursed in death, we starve for flesh
Our skin is cooked and curled
We'll eat our skin and smash them in
In Hell, we'll grind their bones.

CHORUS 3

CHORUS 4
Save our city
Keep our souls, Lord God
Through the rapture
of this world.

CHORUS 5
Save our city
(Fought and fell for our great king)
Keep our souls, Lord God
(We burned alive and boiled)
Through [the mayor's ruined head, the boy steps through the window] the rapture
(The dragon, red and wrathful calls)
of this world. [and cries out from the ledge to the people below.] (We
rise and march once more.)

CHORUS 6
Save our city [There's a time to pray and there's a time to fight] (Cursed
in death, we starve for flesh)
Keep our souls, Lord God [Anything can be a weapon if you're holding it right]
(Our skin is cooked and curled)
Through the rapture [Defend what is yours, they will not take our souls]
(We'll eat our skin and smash them in)
and so we [it's time now to] rise and fight!

CHORUS 7
Save our city!
Keep our souls, Lord!
Rise now and fight!

OUTRO
Добавлено: 27.04.2012
Другие материалы по этой песне:
  • Аккорды и текст

Страница создана 27.04.2012
http://primanota.ru/ludo/save-our-city-chords.htm
Привет, Гость.
Предлагаем пройти революционный курс по гитаре.
Подарок от PrimaNota.Ru, забирай!