PrimaNota.ru - самый крупный в мире бесплатный архив песенных текстов, аккордов, табулатур и нот


Ludo - Part I Broken Bride - аккорды и текст, таба, видео

Регистрация Запомнить меня
Войти через:  Facebook Google Twitter Vk Yandex Mail.ru

Ludo - Part I Broken Bride - аккорды и текст, таба, видео

Печатать
Просмотров: 177
Уроки эстрадного вокала в Санкт-Петербурге
Part I Broken Bride
Ludo
Broken Bride
Ludo

Tabbed by: Josh


INTRO 

Bm     C  


   G                            D
|----------------------------------------------------------------|
|----------------------------------------------------------------|
|--12-----14-----16-----18-----18-----17-----15-----18-----------|
|---x-x4---x-x4---x-x4---x-x4---x-x4---x-x4---x-x4---x-x4--------|
|--10-----12-----14-----16-----16-----15-----13-----16-----------|
|----------------------------------------------------------------|


VERSE 1

Em           
Fifteen years I raged against the constant C, the speed of light

C
the diagrams and haunted sleep, frozen sheets, in bed, my dreams

G
your garden grave, I'd climb inside, hold your bones and slowly die

Am
the cooling space inside your chest, my broken bride, you never breathed again.

Em
Circuits fail, the cosmic strings like rubber bands, I lose control

C
they snap, I fall through mist to mud against my face, the taste of blood

G
the world is strange, the stinking earth and giant trees through heavy air a demon shrieks, 
G
what have I done, what hell is waiting
for me? 

CHORUS

Am          F                 C
I crashed before the birth of Christ

     G
Pterodactyls swarming

Am           F
You died in 1989

C                   G
Just wanna get back to that morning in May

F           Am           G
Keep you in bed, never escape

            C
Holding you close, oh oh oh-oh-oh

F             Am                  G
Listen to you breathe the evening glow

          G                    Em    
of fading light and cooling space. 



POST CHORUS 1

C      Em     C



VERSE 2   same chord progression

Em     C     G     Am   

Like motor oil down my throat, I couldn't speak, I dropped the phone
the burning flares, the steam, your hair, bits of glass, they sparkled everywhere
like winter nights, the stars, the ice, all intertwined to hold and keep
like petals pressed in sheets, making love to moonlight in our sleep.
And now above the pits of tar, in a cave I hide
that massive, screaming thing with wings of reaper's cloth, it's standing
just outside
I must get to my machine, I will bring you back to life
fix your ruined lungs, I'll undo what Time has done! 


CHORUS


POST CHORUS 2
  
   Em               Em
|----------------------|
|--0-----0----------0--|
|--0-------0--------0--|
|--2---------2------2--|
|--2----------2-----2--|
|--0----------------0--|



INTERLUDE

  Em               C             G                 C
I carve your sweet name into the cave, I'm sure to die

       Em                 C                  G        
All my strife has been in vain, the glaciers come and wash my words 

C
away. 


FINAL CHORUS

Bm          G                 D
I crashed before the birth of Christ

     A
Pterodactyls swarming

Bm           G
You died in 1989

D                   A
Just wanna get back to that morning in May

G           Bm           A
Keep you in bed, never escape

            D
Holding you close, oh oh oh-oh-oh

G             Bm                  A
Listen to you breathe the evening glow

          A                    Fm    
of fading light and cooling space. 


OUTRO

Fm         D          Fm       D         
Fm         D          Fm       D




   Bm                           D                   Bm      D      Bm~
|---------------------------------------------------------------------|
|---------------------------------------------------------------------|
|--12-----14-----15-----14-----12-----17-----20-----19------20-----12~|
|---x-x4---x-x4---x-x4---x-x4---x-x4---x-x4---x-x4---x-x12---x-12---x~|
|--10-----12-----13-----12-----10-----15-----18-----17------18-----10~|
|---------------------------------------------------------------------|



Listen to the song for timing.


~Josh
Добавлено: 27.02.2012
Другие материалы по этой песне:
  • Аккорды и текст

Страница создана 27.02.2012
http://primanota.ru/ludo/part-i-broken-bride-chords.htm
Привет, Гость.
Предлагаем пройти революционный курс по гитаре.
Подарок от PrimaNota.Ru, забирай!