PrimaNota.ru - самый крупный в мире бесплатный архив песенных текстов, аккордов, табулатур и нот


Ludo - Part 1 The Broken Bride - таба, видео

Регистрация Запомнить меня
Войти через:  Facebook Google Twitter Vk Yandex Mail.ru

Ludo - Part 1 The Broken Bride - таба, видео

Печатать
Просмотров: 33
-------------------------------------------------------------------------------
                             SONG NAME - Pt. 1: Broken Bride
-------------------------------------------------------------------------------

Tabbed by:911tommyshana

Tuning: E Standard

Rhythm:

e|---------------------------------------------------------------------------|
B|---3-3-3-3-3-3-3-3-3-3-3-3---5-5-5-5-5-5-5-5-5-5-5-5-----------------------|
G|---4-4-4-4-4-4-4-4-4-4-4-4---5-5-5-5-5-5-5-5-5-5-5-5-----------------------|
D|---4-4-4-4-4-4-4-4-4-4-4-4---5-5-5-5-5-5-5-5-5-5-5-5-----------------------|
A|---2-2-2-2-2-2-2-2-2-2-2-2---3-3-3-3-3-3-3-3-3-3-3-3-----------------------|
E|---------------------------------------------------------------------------|

e|---------------------------------------------------------------------------|
B|---------------------------------------------------------------------------|
G|---4-4-4-4-4-4-4-4-4-4-4-4---6-6-6-6-6-6-6-6-6-6-6-6-----------------------|
D|---5-5-5-5-5-5-5-5-5-5-5-5---7-7-7-7-7-7-7-7-7-7-7-7-----------------------|
A|---5-5-5-5-5-5-5-5-5-5-5-5---7-7-7-7-7-7-7-7-7-7-7-7-----------------------|
E|---3-3-3-3-3-3-3-3-3-3-3-3---5-5-5-5-5-5-5-5-5-5-5-5-----------------------|


Lead:

e|---------------------------------------------------------------------------|
B|---------------------------------------------------------------------------|
G|----------------------4-4-4-4-5-5-5-5-5-5-5-5-4-4-4-4---------5-5-5-5------|
D|-----/5-5-5-5-7-7-7-7---------------------------------7-7-7-7--------------|
A|---------------------------------------------------------------------------|
E|---------------------------------------------------------------------------|


************************************

| /   slide up
| \   slide down
| h   hammer-on
| p   pull-off
| ~   vibrato
| +   harmonic
| x   Mute note
| b   Bend
| t   Tremolo

************************************
Добавлено: 25.12.2015
Другие материалы по этой песне:

Страница создана 05.06.2012
http://primanota.ru/ludo/part-1-the-broken-bride-chords.htm
Привет, Гость.
Предлагаем пройти революционный курс по гитаре.
Подарок от PrimaNota.Ru, забирай!