PrimaNota.ru - самый крупный в мире бесплатный архив песенных текстов, аккордов, табулатур и нот


Ludo - Good Will Hunting By Myself - текст песни, таба, видео

Регистрация Запомнить меня
Войти через:  Facebook Google Twitter Vk Yandex Mail.ru

Ludo - Good Will Hunting By Myself - текст песни, таба, видео

Печатать
Просмотров: 154
Good Will Hunting By Myself
Ludo


Ludo is a great band, but I seem to be the only one who wants to tab them, so here we go..

Tabbed by: Josh


Chords Used:

   C#  D#  G?  F   Bb   G#   G#2   F2
|----------------------------------------------------------------|
|----------------------------------------------------------------|
|--6---8-----------3---------13----10----------------------------|
|--6---8---5---3---3----6----13----10----------------------------|
|--4---6---6---3---1----6----11-----8----------------------------|
|----------3---1--------4----------------------------------------|


Guitar 1 plays lead, and Guitar 2 does the chords behind it.

Intro

|----------------------------------------------------------------|
|----------------------------------------------------------------|
|----------------------------------------------------------------|
|--------10---15-13-10--------10---15-13-10----------------------|
|--11-11---11-----------11-11---11-------------------------------|
|----------------------------------------------------------------|

   C#                   D#
|----------------------------------------------------------------|
|----------------------------------------------------------------|
|--------10---15-13-10--------12---17-15-12----------------------|
|--11-11---11-----------13-13---13-------------------------------|
|----------------------------------------------------------------|
|----------------------------------------------------------------|

  G#                    F
|----------------------------------------------------------------|
|----------------------------------------------------------------|
|----------------------------------------------------------------|
|--------10---15-13-10--------10---15-13-10----------------------|
|--11-11---11-----------11-11---11-------------------------------|
|----------------------------------------------------------------|

   C#                   D#
|----------------------------------------------------------------|
|----------------------------------------------------------------|
|--------10---15-13-10--------12---17-15-12----------------------|
|--11-11---11-----------13-13---13-------------------------------|
|----------------------------------------------------------------|
|----------------------------------------------------------------|

   C#                   D#
|----------------------------------------------------------------|
|----------------------------------------------------------------|
|--------10---15-13-10--------12---17-15-12----------------------|
|--11-11---11-----------13-13---13-------------------------------|
|----------------------------------------------------------------|
|----------------------------------------------------------------|

  G#       G?         F
|----------------------------------------------------------------|
|----------------------------------------------------------------|
|----------------------------------------------------------------|
|--------10---15-13-10--------10---15-13-10----------------------|
|--11-11---11-----------11-11---11-------------------------------|
|----------------------------------------------------------------|

   C#                   D#
|----------------------------------------------------------------|
|----------------------------------------------------------------|
|--------10---15-13-10--------12---17-15-12----------------------|
|--11-11---11-----------13-13---13-------------------------------|
|----------------------------------------------------------------|
|----------------------------------------------------------------|

Verse:


(in the actual song, Guitar 2 doesn't play during the verse, but the bass plays the bass 
of these chords)
  C                C#                C              Bb
|----------------------------------------------------------------|
|---9----9----9------11---11---11------9---9---9------8---8---8--|
|-12---12---12-----13---13---13------12--12--12-----10--10--10---|
|----------------------------------------------------------------|
|----------------------------------------------------------------|
|----------------------------------------------------------------|


Chorus:   Play the Into


Solo:

  G#     F     C#   D#    C#    D#
  WAH WAH WAH WAH WAH WAH WAH WAH WAH WAH
|----------------------------------------------------------------|
|----------------------------------------------------------------|
|--13~--13~--13~--13~----15~---17~---15~-------------------------|
|----------------------------------------------------------------|
|----------------------------------------------------------------|
|----------------------------------------------------------------|

       G#                 F               C#              D#
|----------------------------------------------------------------|
|----------------------------------------------------------------|
|--13131313131313-12--15151515151515--17171717171717--1515151515-|
|----------------------------------------------------------------|
|----------------------------------------------------------------|
|----------------------------------------------------------------|


   C#                             D#
|--19p17p14---19p17p14---19p17p14---19p17p14--20p17p14--20p17p14-|
|----------------------------------------------------------------| very
|----------------------------------------------------------------| fast
|----------------------------------------------------------------|
|----------------------------------------------------------------|
|----------------------------------------------------------------|

    G#         G?           F
|---14141414---1617171717---121212121212-------------------------|
|----------------------------------------------------------------|
|----------------------------------------------------------------|
|----------------------------------------------------------------|
|----------------------------------------------------------------|
|----------------------------------------------------------------|

    C#              D#
|----------------------------------------------------------------|
|----------------------------------------------------------------|
|---17171717171717--20-17-20-17--131313~-------------------------|
|----------------------------------------------------------------|
|----------------------------------------------------------------|
|----------------------------------------------------------------|

Interlude:


    G#2      F2      C#     D#
|----------------------------------------------------------------|
|----------------------------------------------------------------|
|--x-13--xx--10--xx--6--xx--8-x----------------------------------|
|--x-13--xx--10--xx--6--xx--8-x----------------------------------|
|--x-11--xx---8--xx--4--xx--6-x----------------------------------|
|----------------------------------------------------------------|
Still a little bit of wah.


Then later
   G#         F          C#         D#
|----------------------------------------------------------------|
|----------------------------------------------------------------|
|----------------------------------------------8~----------------|
|------------------------666666666--888888888--8~----------------|
|--66666666---33333333---444444444--666666666--6~----------------|
|--44444444---11111111-------------------------------------------|
Pm...........................................

Finish with Chorus

What an awesome song from an awesome band.


~Josh
Добавлено: 14.04.2012
Другие материалы по этой песне:
  • Аккорды и текст

Страница создана 14.04.2012
http://primanota.ru/ludo/good-will-hunting-by-myself-chords.htm
Привет, Гость.
Предлагаем пройти революционный курс по гитаре.
Подарок от PrimaNota.Ru, забирай!