PrimaNota.ru - самый крупный в мире бесплатный архив песенных текстов, аккордов, табулатур и нот


Lucy Spraggan - Rockcliffe Bay - аккорды и текст, таба, видео

Регистрация Запомнить меня
Войти через:  Facebook Google Twitter Vk Yandex Mail.ru

Lucy Spraggan - Rockcliffe Bay - аккорды и текст, таба, видео

Печатать
Просмотров: 126
Уроки эстрадного вокала в Санкт-Петербурге
Rockcliffe Bay
Lucy Spraggan
"Rockcliffe Bay"

Capo 4th

Intro and this plays throughout the song apart from chorus       
                                                 Strum
E--------------------------------------------------2------|
B--0-3---0----------1-----0--------1------0--------1------|
G----------2--0-------0-----0--------2------0------2------|
D----------------0------2-----2--------2-------2---0------|
A-------------------3--------------0----------------------|
E--3--------------------------------------3---------------|

        G
He said part of me
         C       G
has been lost at sea
Am              D
Never to return again
         G
With her eyes wide open
         C     G
She was softly spoken
           Am                               D
She said: "babe, are you missing the breeze again?"

etc...

Chorus:
          G
He sang, freedom was mine
      C       G
For one last time
           Am                  D
When I was sailing along those waves
           G
But now my plate don't slide
       C         G
And my rum's now wine
           Am    D      G
And I will never be the same


And then at the end it goes:

never.............be the same
E---2--3--2--0--2--2--2--3-----|
B---3--------------3--1--0-----|
G---2--------------2--2--0-----|
D------------------0--0--0-----|
A------------------------2-----|
E------------------------3-----|
Добавлено: 04.09.2014
Другие материалы по этой песне:
  • Аккорды и текст

Страница создана 22.06.2013
http://primanota.ru/lucy-spraggan/rockcliffe-bay-chords.htm
Привет, Гость.
Предлагаем пройти революционный курс по гитаре.
Подарок от PrimaNota.Ru, забирай!