PrimaNota.ru - самый крупный в мире бесплатный архив песенных текстов, аккордов, табулатур и нот


Lucy Rose - Into The Wild - таба, видео

Регистрация Запомнить меня
Войти через:  Facebook Google Twitter Vk Yandex Mail.ru

Lucy Rose - Into The Wild - таба, видео

Печатать
Просмотров: 75
Авторы: Lucy Rose

-------------------------------------------------------------------------------
                             Into The Wild - Lucy Rose
-------------------------------------------------------------------------------

DADF#AD tuning, CAPO 7

This tab is based on the live version she played for WLT. You can find that here:
https://www.youtube.com/watch?v=HN10u74xlFo


Intro
D |--0---0---0---------|
A |--0---0---0---------|
F#|--0---0---1---------|   x2
D |--0---2---0---------|
A |--0---0---2---------|
D |--0---0---0---------|


Verse
D |--0---0---0---0---0---0---0---0---0---0--|
A |--0---0---0---0---0---0---0---0---0---0--|
F#|--0---0---1---0---0---1---0---0---1---1--|   
D |--0---2---0---0---2---0---0---2---0---0--|
A |--0---0---2---0---0---2---0---0---2---2--|
D |--0---0---0---0---0---0---0---0---2---2--|

And you stay so far away
You come back even closer
Cause we both know how the other feels


Pre-chorus
D |--0---0---0---0---0---0---0---0---0--|
A |--0---0---0---0---0---0---0---0---0--|
F#|--5---3---1---1---1---3---5---3---1--|   Only strum once for 5th, 6th and the last chord
D |--5---4---2---2---2---4---5---4---2--|
A |--0---0---0---0---0---0---0---0---0--|
D |--0---0---0---0---0---0---0---0---0--|

You came running down with your hair looking wild
Something I haven't seen in a while


Chorus
D |--7---5---4---0---0---0---0---0---0--|
A |--0---0---0---7---5---0---5---0---0--|
F#|--0---0---0---0---0---7---0---0---0--|   x2   
D |--0---0---0---0---0---0---0---7---5--|
A |--0---0---0---0---0---0---0---0---0--|
D |--0---0---0---0---0---0---0---0---0--|

How to know how to feel
About you
How to know how to be
Without you

D |--0---0----|
A |--0---0----|
F#|--7---5----|   x8   Slide from the 7th fret to the 5th
D |--7---5----|
A |--0---0----|
D |--0---0----|

If I could you know me
If you would believe me
If I could you know me
I would let you in


Intro part again
D |--0---0---0---------|
A |--0---0---0---------|
F#|--0---0---1---------|   x2
D |--0---2---0---------|
A |--0---0---2---------|
D |--0---0---0---------|


Verse
D |--0---0---0---0---0---0---0---0---0---0--|
A |--0---0---0---0---0---0---0---0---0---0--|
F#|--0---0---1---0---0---1---0---0---1---1--|   
D |--0---2---0---0---2---0---0---2---0---0--|
A |--0---0---2---0---0---2---0---0---2---2--|
D |--0---0---0---0---0---0---0---0---2---2--|

And we both know things will change
Move on and just let go
Cause we both know how the story ends


Pre-chorus
D |--0---0---0---0---0---0---0---0---0--|
A |--0---0---0---0---0---0---0---0---0--|
F#|--5---3---1---1---1---3---5---3---1--|   Only strum once for 5th, 6th and the last chord
D |--5---4---2---2---2---4---5---4---2--|
A |--0---0---0---0---0---0---0---0---0--|
E |--0---0---0---0---0---0---0---0---0--|

You came running down with your hair looking wild
Something I haven't seen in a while


Chorus
D |--7---5---4---0---0---0---0---0---0--|
A |--0---0---0---7---5---0---5---0---0--|
F#|--0---0---0---0---0---7---0---0---0--|   x2   
D |--0---0---0---0---0---0---0---7---5--|
A |--0---0---0---0---0---0---0---0---0--|
D |--0---0---0---0---0---0---0---0---0--|

How to know how to feel
About you
How to know how to be
Without you

D |--0---0----|
A |--0---0----|
F#|--7---5----|   x8   Slide from the 7th fret to the 5th
D |--7---5----|
A |--0---0----|
D |--0---0----|

If I could you know me
If you would believe me
If I could you know me
I would let you in


Ending part
D |--0---0---0---0---0---0---0--|
A |--0---0---0---0---0---0---0--|
F#|--0---0---0---0---0---0---0--|   x5
D |--0---0---0---0---0---0---4--|
A |--0---0---0---0---4---5---0--|
D |--0---2---4---5---0---0---0--|

Into the wild
Into the wild

D |--0---0---0---0---0---0---0---0---0---0---0---0---0--|
A |--0---0---0---0---0---0---0---0---0---0---0---0---0--|
F#|--0---0---0---0---0---0---0---0---0---0---0---0---0--|   Strum once for the ending chord
D |--0---0---0---0---0---0---0---0---0---0---0---0---0--|
A |--0---5---4---2---5---4---2---0---0---2---0---0---0--|
D |--0---0---0---0---0---0---0---0---0---0---4---2---0--|


For the intro and the verses she picks the base note first before strumming the chord and 
she also adds a hammer-on for those parts. By watching and listening to her performance 
you will learn that very quickly!


If there are any mistakes leave a comment!
Добавлено: 17.12.2015
Другие материалы по этой песне:
  • Аккорды и текст

Страница создана 17.12.2015
http://primanota.ru/lucy-rose/into-wild-chords.htm
Привет, Гость.
Предлагаем пройти революционный курс по гитаре.
Подарок от PrimaNota.Ru, забирай!