PrimaNota.ru - самый крупный в мире бесплатный архив песенных текстов, аккордов, табулатур и нот


Lucky Boys Confusion - Cigarettes - текст песни, таба, видео

Регистрация Запомнить меня
Войти через:  Facebook Google Twitter Vk Yandex Mail.ru

Lucky Boys Confusion - Cigarettes - текст песни, таба, видео

Печатать
Просмотров: 90
Cigarettes by Lucky Boys Confusion
Tabbed by Chris Daker

Intro (clean):
e-----------|-----------|-----------|-----------|
B-----------|-----------|-----------|-----------|
G------5----|------5----|------5----|------5----| x6
D----5---5--|----5---5--|----5---5--|----5---5--|
A--3--------|-----------|-----------|-----------|
E-----------|--3--------|--5--------|--3--------|
 "Cigarettes..."

e-----------|-----------|-----------|
B-----------|-----------|-----------|
G-----------|-----------|-----------|
D-3-3--3-333|--3-3-3----|-3-3--3-333|
A-3-3--3-333|--3-3-3----|-3-3--3-333|
E-1-1--0-111|--0-0-0----|-1-1--0-111|
 "Can't wear..."         "Cause you're solid gold"


Verse (dist):
Guitar 1:
e------------------|
B------------------|
G--5-5-------------|
D--5-5---5-5--7-7--| x4
A--3-3---5-5--7-7--|
E--------3-3--5-5--|
 "Cigarettes..."

Guitar 2:
(Rest for 2 measures) then:
e--8---8---8---8---8---8---8---8---|
B----8---8---8---8---8---8---8---8-|
G----------------------------------| x 2
D----------------------------------|
A----------------------------------|
E----------------------------------|

Guitar 1:
e-----------|-----------|-----------|
B-----------|-----------|-----------|
G-----------|-----------|-----------|
D-3-3--3-333|--3-3-3----|-3-3--3-333|
A-3-3--3-333|--3-3-3----|-3-3--3-333|
E-1-1--0-111|--0-0-0----|-1-1--0-111|
 "Can't wear..."         "Cause you're solid gold"

Chorus:
Guitar 1:
e------|------|------|-------|          e-----|
B------|------|------|-------|          B-----|
G--5---|------|------|-------|          G-----|
D--5---|--3---|--7---|--5----| x2 then  D--3--|(ring out)
A--3 x8|--3---|--7---|--5----|          A--3--|
E------|--1 x8|--5 x8|--3 x8-|          E--1--|

Guitar 2:
(Rest for 4 measures) then:
e-------|------|------|-------|       e-----|
B-------|------|------|-------|       B-----|
G--12---|--12--|--9---|--7----|       G--5--|
D--10 x8|--9 x8|--7 x8|--5 x8-| then  D--3--|(ring out)
A-------|------|------|-------|       A-----|
E-------|------|------|-------|       E-----|

Then play the verse and chorus again.

Bridge:
(Chords played on keyboard)
 C       F           Am       G
   You belong to me,    you belong to me. x2

Guitar 1:
e------|------|--------|
B------|------|--------|
G--5---|------|--------|
D--5---|--3---|--7-----| x2
A--3 x8|--3---|--7-----|
E------|--1 x8|--5 x16-|
 "You're safe right here..."

Guitar 2:
e-------|------|--------|
B-------|------|--------|
G--12---|--12--|--9-----|
D--10 x8|--9 x8|--7 x16-| x2
A-------|------|--------|
E-------|------|--------|


Guitar 1:
e------|------|------|-------|
B------|------|------|-------|
G--5---|--7---|-10---|-------|
D--5---|--7---|-10---|-6-----|
A--3 x8|--5 x8|-8 x8-|-8-----|
E------|------|------|-8 ring|
"Save your breath.."

Guitar 2:
e-------|------|-------|--------|
B-------|------|-------|--------|
G--12---|--14--|-17----|-13-----|
D--10 x8|--12x8|-15 x8-|-15 ring|
A-------|------|-------|--------|
E-------|------|-------|--------|

Then repeat the chorus 3 times with alternating strumming for guitar one and thats the song.
Добавлено: 20.06.2013
Другие материалы по этой песне:
  • Аккорды и текст

Страница создана 14.04.2012
http://primanota.ru/lucky-boys-confusion/cigarettes-chords.htm
Привет, Гость.
Предлагаем пройти революционный курс по гитаре.
Подарок от PrimaNota.Ru, забирай!