PrimaNota.ru - самый крупный в мире бесплатный архив песенных текстов, аккордов, табулатур и нот


Lucky Boys Confusion - 3 To 10 Cbs Caddy Part Iii - таба, видео

Регистрация Запомнить меня
Войти через:  Facebook Google Twitter Vk Yandex Mail.ru

Lucky Boys Confusion - 3 To 10 Cbs Caddy Part Iii - таба, видео

Печатать
Просмотров: 55
Title: 3 to 10 / CB's Caddy Part III
Artist: Lucky Boys Confusion
Album: Throwing The Game
Tuning: Standard (eBGDAE)
Tabbed By: M.E.S. White Sox 3 (meswhitesox3)
Email: meswhitesox3@wideopenwest

This song is awesome, and so is LBC!
And yes, this song DOES have a / in the song name!
There are also 3 to 10 AND 3 to 10 / CBs Part II songs from LBC.

Key:
* = Palm mute the note/fret if a * is under it
~ = Hold note
v = vibrato (the wiggle thingy)

(Everything is on distortion unless otherwise noted)


INTRO
(This part is fast, so it does not agree with the shown
  speed/rhythm of the other parts in the song!)
e|-------------------------|
B|-------------------------|
G|-------------------------|
D|-------------------------|  X 2
A|-66666644444-------66666-|
E|-------------444444------|
   ** * * * *  ** * * * *
e|---------------------------------|
B|---------------------------------|
G|-8-88888-6-66666---------8-88888-|
D|-8-88888-6-66666-6-66666-8-88888-|  X 3
A|-6-66666-4-44444-6-66666-6-66666-|
E|-----------------4-44444---------|

e|---------------------------------|
B|---------------------------------|
G|-8-88888-6-66666---------8~------|
D|-8-88888-6-66666-6-66666-8~------|
A|-6-66666-4-44444-6-66666-6~------|
E|-----------------4-44444---------|


VERSE
    Bass, but I play this: (palm muted)
e|---------------------------------|
B|---------------------------------|
G|-8-8--6-6-------8~888------------|
D|-8-8--6-6--6-66-8~888------------|  X 2
A|-6-6--4-4--6-66-6~666------------|
E|-----------4-44------------------|
   * *  * *  * ** *****
    Now the guitar plays:
e|---------------------------------|
B|---------------------------------|
G|-8-8--6-6-------8~---------------|
D|-8-8--6-6--6-66-8~---------------|
A|-6-6--4-4--6-66-6~---------------|
E|-----------4-44------------------|
                *
e|---------------------------------|
B|---------------------------------|
G|-8-8--6-6------------------------|
D|-8-8--6-6--6---------------------|
A|-6-6--4-4--6---------------------|
E|-----------4---------------------|


CHORUS
e|-------------------------|
B|-------------------------|
G|-8888-6666------8-8888---|
D|-8888-6666-6666-8-8888---|  X 3
A|-6666-4444-6666-6-6666---|
E|-----------4444----------|

e|-------------------------|
B|-------------------------|
G|-8888-6666------8~-------|
D|-8888-6666-6-66-8~-------|
A|-6666-4444-6-66-6~-------|
E|-----------4-44----------|
                *


VERSE 2
(Like before but a little different)
    Bass, but I play this:
e|---------------------------------|
B|---------------------------------|
G|-8-8--6-6-------8~888------------|
D|-8-8--6-6--6-66-8~888------------|
A|-6-6--4-4--6-66-6~666------------|
E|-----------4-44------------------|
   * *  * *  * ** *****
"doing are thing" BEND "there goes the box spring"
    Still really bass: (except for 5b!)
e|---------------------------------|
B|---------------------------------|
G|-8-8--6-6--------5b--------------|
D|-8-8--6-6--6-66------------------|
A|-6-6--4-4--6-66------------------|
E|-----------4-44------------------|
   * *  * *  * **
Now the guitar plays: (CLEAN)
e|---------------------------------|
B|---------------------------------|
G|-8-8--6-6-------8~---------------|
D|-8-8--6-6--6-66-8~---------------|
A|-6-6--4-4--6-66-6~---------------|
E|-----------4-44------------------|
                *
e|---------------------------------|
B|---------------------------------|
G|-8-8--6-6------------------------|
D|-8-8--6-6------------------------|
A|-6-6--4-4--6666665b--------------|
E|---------------------------------|
              \    /
          mute after each note

CHORUS


INTRO
    Play first riff like normal,
    then the second 3 times like normal,
    but for the 4th,
End like this:
e|---------------------------------|
B|---------------------------------|
G|-8-88888-6-66666---------8~------|
D|-8-88888-6-66666-6-6-6-6-8~------|
A|-6-66666-4-44444-6-6-6-6-6~------|
E|-----------------4-4-4-4---------|


SOLO
e|-------------------------------------|
B|-------------------------------------|
G|-------------------------------------|
D|-------------------------------------|
A|-6-6-666-4-44-4-4-3-3-333-6-66-6-6---|
E|-------------------------------------|

e|-------------------------------------|
B|-------------------------------------|
G|-------------------------------------|
D|-------------------------------------|
A|-6-6-666-4-44-4-4-3333333-1~---------|
E|------------------^vibrato?----------|


VERSE 3
No bass this time guitar is CLEAN
(feedback in background)
e|---------------------------------|
B|---------------------------------|
G|-8-8--6-6-------8~---------------|
D|-8-8--6-6--6-66-8~---------------| X 3
A|-6-6--4-4--6-66-6~---------------|
E|-----------4-44------------------|
                *

CHORUS


OUTRO
"There's always the backseat!..."
Some crazy high solo's I can't hear very well...
then:
e|---------------------------------|
B|---------------------------------|
G|-8-8--6-6-------8~---------------|
D|-8-8--6-6--6-66-8~---------------|
A|-6-6--4-4--6-66-6~---------------|
E|-----------4-44------------------|
                *
Добавлено: 17.11.2013
Вам также может быть интересно:
Другие материалы по этой песне:
  • Аккорды и текст

Страница создана 17.11.2013
http://primanota.ru/lucky-boys-confusion/3-to-10-cbs-caddy-part-iii-chords.htm
Привет, Гость.
Предлагаем пройти революционный курс по гитаре.
Подарок от PrimaNota.Ru, забирай!