PrimaNota.ru - самый крупный в мире бесплатный архив песенных текстов, аккордов, табулатур и нот


Luciano Ligabue - Walter Il Mago 2003 - таба, видео

Регистрация Запомнить меня
Войти через:  Facebook Google Twitter Vk Yandex Mail.ru

Luciano Ligabue - Walter Il Mago 2003 - таба, видео

Печатать
Просмотров: 87
		   WALTER IL MAGO (ligabue)

così come arrangiata per l'album live Giro d'Italia (2003)

Tab by Zac

Intro: Gtr 1 capo II tasto
|------------------|---|-----------------|--|---------------------------------------
|---3---3---5-3---5/7--|--(0)--3---2-3-3-|--|---0-------3-5/7-7--7-7^8^7^8^7-----7--
|--2------2-----2--|---|--4--4---4-2---2-|--|-0----2----2--------7-----------9-7----
|-0---0------------|---|-5---------------|--|-0----0----0---------------------------
|------------------|---|-----------------|--|---------------------------------------
|------------------|---|-----------------|--|---------------------------------------

|------------0-2-|-2--2^3^2^3^2---|-----------------|-------------0---------------
|---3---3--------|--------------5-|--(0)--3---2-5-3-|---0-3-0-2-----2-3-5--5^7^5--
|--2------2------|----------------|--4--4---4-2---2-|---0--------0----------------
|-0---0----------|----------------|-5---------------|---0--------0----------------
|----------------|----------------|-----------------|-----------------------------
|----------------|----------------|-----------------|-----------------------------

|---------------------------------------------------|-0^2-2-3-2-0---0^2-|
|-7-8-7-7-----7--7-5^7^5-3-------0-3-2-3----5-2-3-5-|-3---3-------3-----|
|-7-----7^9^7--------------6-4--4---------2---------|-2---2-------2-----|
|------------------------------5--------------------|-------------------|
|---------------------------------------------------|-------------------|
|---------------------------------------------------|-------------------|

|-3-2^3^2-0---------------------------0^2-2-3-2-0---2--2-2^3^2-0----------------
|-----------3-0---3-2-5----5-2-3-5----3---3-------3----3---------3---0-3---2-5--
|---------------0--------2------------2---2-------------------------4----4------
|---------------0--------------------------------------------------5------------
|-------------------------------------------------------------------------------
|-------------------------------------------------------------------------------

|----------|--------2-3-2-------------|
|----2-3-5-|-3---3--------3^5^3-3-----|
|---2------|-2-2-------------------7--|
|----------|-----------------------7--|
|-0--------|--------------------------|
|----------|--------------------------|

Gtr 2
|------------|------------------------|
|------5-7-5-|-----5-7-5--------------|
|------------|-------------2-4---2-4--| si ripete...
|------------|-0----------------------|
|-0----------|------------------------|
|------------|------------------------|

Gtr 3
|--5-5-7-9--5-5-7-9-|-9-9-7-9--9-10-9-7-9-|
|--5-5------5-5-----|---------------------|
|-------------------|---------------------|
|-------------------|---------------------|
|-------------------|---------------------|
|-------------------|---------------------|

     
Добавлено: 19.09.2013
Другие материалы по этой песне:
  • Аккорды и текст

Страница создана 19.09.2013
http://primanota.ru/luciano-ligabue/walter-il-mago-2003-chords.htm
Привет, Гость.
Предлагаем пройти революционный курс по гитаре.
Подарок от PrimaNota.Ru, забирай!