PrimaNota.ru - самый крупный в мире бесплатный архив песенных текстов, аккордов, табулатур и нот


Luciano Ligabue - Una Vita Da Mediano.2 - таба, видео

Регистрация Запомнить меня
Войти через:  Facebook Google Twitter Vk Yandex Mail.ru

Luciano Ligabue - Una Vita Da Mediano.2 - таба, видео

Печатать
Просмотров: 80
Уроки эстрадного вокала в Санкт-Петербурге
		   --------
UNA VITA DA MEDIANO - Ligabue
Chorded and tabbed by LuRch  lurch@freemail.it>

Per gli accordi mi sono ispirato a quelli di Cristian Gabbanini postati
ormai piu' volte... anche se io li ho chiamati con un nome differente... i
tab non sono proprio corretti, ma ci si avvicinano... anzi, chi ha voglia di
fondersi un pochettino potrebbe anche correggermeli! ;-)
"L'assolo" che c'e' piu' o meno a meta' della canzone non sono riuscito a
tirarlo giu'... d'altra parte sentita alla radio e' un po' dura... comunque
mi pare giochi sulla 2, 4 e 5 corda del Em9 poi varia ancora e... insomma
e' un casino!
Che dirvi... ogni suggerimento o commento e' gradito! :-D

capo sul 5° tasto

D       xx0232
D2 xx0230
D9      x02232 oppure A6/7sus = x02032
Em9     x20032
G       320033

Il tab non e' quello esatto, ma ci si avvicina...
Giro iniziale:

D     D2            D9                  Em9                   G
-2--2-0-2-0-------|-2--0-2-0----------|-2--0-2-0------------|-3-3-3----3-3-|
-3--3-------3-----|-3--------3--------|-3---------3---------|-3-3-3----3-3-|
-2--2---------2---|-2----------0-2----|-0---------------0---|-0-0-0----0-0-|
-0--0-----------2-|-2-------------0---|-0-------------0-----|-0---0--------|
------------------|-0---------------2-|-2-----------2-------|-2---2--------|
------------------|-------------------|-------------------3-|-3---3--------|

Verso:

D     D2            D9                    Em9                  G
-2--2-0-2-2--------|-2--0-2-2-----------|-2--0-2-2-----------|-3-3-3---3-3-|
-3--3------3---3---|-3--------3-----3---|-3---------3---3----|-3-3-3---3-3-|
-2--2--------2-----|-2------------0-----|-0-----------0------|-0-0-0---0-0-|
-0--0------------2-|-2----------2-------|-0-------------0----|-0---0-------|
-------------------|-0----------------2-|-2------------------|-2---2-------|
-------------------|--------------------|------------------3-|-3---3-------|


Ritornello e Finale:

D     D2            D9                   Em9           G
D
-2--2-0-2-0-------|-2--0-2-0-----------|-2--0-2-0------------|-3--3-3-3-3-3-
3-3-3-3-2-3|-2-|
-3--3-------3-----|-3--------3-----3---|-3---------3---------|-3--3---3-----
3---3------|-3-|
-2--2---------2---|-2------------0-----|-0---------------0---|-0--0---------
0----------|-2-|
-0--0-----------2-|-2----------2-------|-0-------------0-----|-0--0---------
-----------|---|
------------------|-0----------------2-|-2-----------2-------|-2--2---------
-----------|---|
------------------|--------------------|-------------------3-|-3--3---------
-----------|---|

Oppure semplificando un po' potrebbe andare suonata tutta cosi':

 D    D2             A6/7sus              Em9                   G
-2--2-0-2-2--------|-2--0-2-2-----------|-2--2-0-2-2----------|-3-3-3----3-3
-|
-3--3------3---3---|-3--------3---3-----|-3--3--------3---3---|-3-3-3----3-3
-|
-2--2--------2-----|-0----------0-------|-0--0----------0-----|-0-0-0----0-0
-|
-0--0------------2-|-2------------------|-0--0----------------|-0---0-------
-|
-------------------|----------------2---|-2--2----------------|-2---2-------
-|
-------------------|--------------------|---------------------|-------------
-|


D
una vita da mediano
A4/C
a recuperar palloni
Em9
nato senza i piedi buoni
G
lavorare sui polmoni
una vita da mediano
con dei compiti precisi
a coprire certe zone
a giocare generosi

[Ritornello]
lì
sempre lì
lì nel mezzo
finchè ce n'hai stai lì


una vita da mediano
da chi segna sempre poco
che il pallone devi darlo
a chi finalizza il gioco
una vita da mediano
che natura non ti ha dato
nè lo spunto della punta
nè del 10 che peccato

lì
sempre lì
lì nel mezzo
finchè ce n'hai stai lì
stai lì
sempre lì
lì nel mezzo
finchè ce n'hai
finche ce n'hai
stai lì

una vita da mediano
da uno che si brucia presto
perché quando hai dato troppo
devi andare e fare posto
una vita da mediano
lavorando come Oriali
anni di fatica e botte e
vinci casomai i mondiali

lì
sempre lì
lì nel mezzo
finchè ce n'hai stai lì
stai lì
sempre lì
lì nel mezzo
finchè ce n'hai
finchè ce n'hai
stai lì

[Finale]

--
LuRch





     
Добавлено: 10.06.2013
Другие материалы по этой песне:
  • Аккорды и текст

Страница создана 10.06.2013
http://primanota.ru/luciano-ligabue/una-vita-da-mediano2-chords.htm
Привет, Гость.
Предлагаем пройти революционный курс по гитаре.
Подарок от PrimaNota.Ru, забирай!