PrimaNota.ru - самый крупный в мире бесплатный архив песенных текстов, аккордов, табулатур и нот


Luciano Ligabue - Una Vita Da Mediano 2003 - аккорды и текст, видео

Регистрация Запомнить меня
Войти через:  Facebook Google Twitter Vk Yandex Mail.ru

Luciano Ligabue - Una Vita Da Mediano 2003 - аккорды и текст, видео

Печатать
Просмотров: 73
Una Vita Da Mediano 2003
Luciano Ligabue
		   UNA VITA DA MEDIANO (Ligabue)

così come arrangiata per l'album live Giro d'Italia (2003)

Tab by Zac


Fill 1  (Gtr 1, si ripete per tutta l'intro)

|-----12-16----14-12-|-----12-16----14-12-|-----12-16----14-12-|----12-16---14^16-14^16^14-12-|
|--12-------12-------|--12-------12-------|--------------------|-12-------12------------------|
|--------------------|--------------------|--14-------14-------|------------------------------|
|--------------------|--------------------|--------------------|------------------------------|
|--------------------|--------------------|--------------------|------------------------------|
|--------------------|--------------------|--------------------|------------------------------|

Fill 2  (Gtr 2, si ripete)

|-------------------------------|-------------------------------|
|-------------------------------|-------------------------------|
|---------9-9-9-----------------|---------9-9-9-----------------|
|---------------7/9-9-9-9-7-7-7-|---------------7/9-9-9-9-7-7-7-|  ....
|--\7-7-7-----------------------|--\7-7-7-----------------------|
|-------------------------------|-------------------------------|

Ritmo Gtr 3 capo II tasto

re
  una vita da mediano
la4/6
  a recuperar palloni
mi-7/9
  nato senza i piedi buoni
sol
  lavorare sui polmoni
re
  una vita da mediano
la4/6
  con dei compiti precisi
mi-7/9
  a coprire certe zone
sol
  a giocare generosi


re
  lì
la4/6
  sempre lì
mi-7/9
  lì nel mezzo
sol
  finchè ce n'hai stai lì


una vita da mediano
da chi segna sempre poco
che il pallone devi darlo
a chi finalizza il gioco
una vita da mediano
che natura non ti ha dato
nè lo spunto della punta
nè del 10 che peccato

lì (Fill 3)
sempre lì
lì nel mezzo
finchè ce n'hai stai lì
stai lì
sempre lì
lì nel mezzo
finchè ce n'hai
finche ce n'hai
stai lì

Fill 3 (Gtr4 capo II tasto)

|-----0-2-3-5-|------0-2-3-5---7-|---0-2-3-5-|---0-2-3-2-|
|---3---------|----3---------3---|-3---------|-3---------|
|-------------|------------------|-----------|-----------|
|-0-----------|--2---------------|-----------|-----------|
|-------------|------------------|-----------|-----------|
|-------------|------------------|-----------|-----------|

|-----0-2-3-5-|------0-2-3-5---7-|---0-2-3-5-5/7-5-|---------------|
|---3---------|----3---------3---|-3---------------|-3-3-3-3-3-3-3-|
|-------------|------------------|-----------------|---------------|
|-0-----------|--2---------------|-----------------|---------------|
|-------------|------------------|-----------------|---------------|
|-------------|------------------|-----------------|---------------|

Bridge: Gtr 1

si-					   re
|-------------12------------12--12----------|-------------------------------------|
|-------12-14---------12-14--------14-12----|-------------12-14-12----12-14-12----|
|-11-13----------11-13-------------------13-|-11/13-11/13----------13----------13-|
|-------------------------------------------|-------------------------------------|
|-------------------------------------------|-------------------------------------|
|-------------------------------------------|-------------------------------------|

si-					   re
|-------------12------------12--12----------|-------------------------------------------------|
|-------12-14---------12-14--------14-12----|-------12----14-12----14-12----12^14^14----12-14-|
|-11-13----------11-13-------------------13-|-11/13----13-------13-------13----------13-------|
|-------------------------------------------|-------------------------------------------------|
|-------------------------------------------|-------------------------------------------------|
|-------------------------------------------|-------------------------------------------------|

si-						sol
|-------------12------------12--12----------|-------------------------------------|
|-------12-14---------12-14--------14-12----|-7/9-9-9-9/12-12-12-12\9-9-9-9\7-7-7-|
|-11-13----------11-13-------------------13-|-------------------------------------|
|-------------------------------------------|-------------------------------------|
|-------------------------------------------|-------------------------------------|
|-------------------------------------------|-------------------------------------|

  mi-						la9
|-7/9-9-9-9/12-12-12-12\9-9-9-9/12-12-12-12/14-|-14-14-14-14-14-14-14-12\-|
|----------------------------------------------|--------------------------|
|----------------------------------------------|--------------------------|
|----------------------------------------------|--------------------------|
|----------------------------------------------|--------------------------|
|----------------------------------------------|--------------------------|


una vita da mediano
da uno che si brucia presto
perché quando hai dato troppo
devi andare e fare posto
una vita da mediano
lavorando come Oriali
anni di fatica e botte e
vinci casomai i mondiali


qui  (Fill 3)
sempre qui
qui nel mezzo
finchè ce n'ho sto qui
sto qui
sempre qui
qui nel mezzo
finchè ce n'ho
finchè ce n'ho
stai qui     
Добавлено: 06.11.2013
Другие материалы по этой песне:
  • Аккорды и текст

Страница создана 06.11.2013
http://primanota.ru/luciano-ligabue/una-vita-da-mediano-2003-chords.htm
Привет, Гость.
Предлагаем пройти революционный курс по гитаре.
Подарок от PrimaNota.Ru, забирай!