PrimaNota.ru - самый крупный в мире бесплатный архив песенных текстов, аккордов, табулатур и нот


Luciano Ligabue - Tra Palco E Realta' 2003 - таба, видео

Регистрация Запомнить меня
Войти через:  Facebook Google Twitter Vk Yandex Mail.ru

Luciano Ligabue - Tra Palco E Realta' 2003 - таба, видео

Печатать
Просмотров: 60
Уроки эстрадного вокала в Санкт-Петербурге
		   TRA PALCO E REALTA' (Ligabue)

così come arrangiata per l'album live Giro d'Italia (2003)

Tab by Zac e Jex


Gtr 1 (Liga) si ripete...

|------------|-----------|-----------|-------------|
|------3-----|-----3-----|-----3-----|-------------|
|--2-2---2-0-|-0-0---0-0-|-2-2---2-2-|-0---0-2---2-|
|--0-------0-|-----------|-----------|---0-----2---|
|------------|-2-------2-|-4-------4-|-------0-----|
|------------|-----------|-----------|-3-----------|

|------------|-----------|-----------|---------|
|------3-----|-----3-----|-----3-----|---------|
|--2-2---2-0-|-0-0---0-0-|-2-2---2-2-|--0--2---|
|--0-------0-|-----------|-----------|--0--2---|
|------------|-2-------2-|-4-------4-|-----0---|
|------------|-----------|-----------|--3------|

        re                 mi-
Abbiamo facce che non conosciamo
         fa#-                    sol   la
ce le mettete voi in faccia pian piano
          re              mi-
e abbiamo fame di quella fame
              fa#-          sol  la
che il vostro urlo ci regalera'

E abbiamo l'aria di chi vive a caso
l'aria di quelli che paghi a peso
e abbiamo scuse che anche se buone
non c'e' nessuno che le ascoltera'

        sol                  re
E poi abbiamo gia' chi ci porta
|-----------|-----------|
|-----3-----|-----3-----|
|-0-0---0-0-|-2-2---2-0-|
|-----------|-----------|
|-----------|-----------|
|-3-------3-|-2---------|

          mi-         re
fino alla prossima citta'
|-----------|-----------|
|-----3-----|-----3-----|
|-0-0---0-0-|-2-2---2-0-|
|-----------|-0-------0-|
|-----------|-----------|
|-0---------|-----------|

ci mette davanti a un altro microfono
che qualche cosa succedera'

            la          la4 la
Siam quelli la' Siam quelli la'
|-----------|-----------|
|-----0-----|-----0-----|
|-2-2---2-2-|-2-2---2-2-|
|-----------|-----------|
|-0-------0-|-0-------0-|
|-----------|-----------|

            mi- sol          la         re
Siam quelli la' Quelli tra palco e realta'
|---------|---------|
|----3----|---------|
|--0------|--0--2---|
|---------|--0--2---|
|---------|-----0---|
|--0------|--3------|

|------------|-----------|-----------|---------|
|------3-----|-----3-----|-----3-----|---------|
|--2-2---2-0-|-0-0---0-0-|-2-2---2-2-|--0--2---|
|--0-------0-|-----------|-----------|--0--2---|
|------------|-2-------2-|-4-------4-|-----0---|
|------------|-----------|-----------|--3------|


Abbiamo amici che neanche sappiamo
che finche' va bene ci leccano il culo
e poi abbiamo casse di Maalox
per pettinarci lo stomaco.

Abbiamo soldi da giustificare
e complimenti per la trasmissione
e abbiamo un ego da far vedere
a uno bravo davvero un bel po'

E poi abbiamo chi ci da' il voto
ci vuol spiegare come si fa:
*e' come prima? No si e' montato*
ognuno sceglie la tua verita'

Siam quelli la'
Siam quelli la'
Siam quelli la'
Quelli tra palco e realta'
Quelli tra palco e realta'

si-        la             mi-     re       la     si-
E c'e' chi non si sbaglia mai: ti guarda e sa chi sei.
|------------|-----------|-----------|-------------|
|------3-----|------2----|-0---0-----|--3---2------|
|--4-----4---|------2----|-0-0---0-0-|--2---2------|
|----4-----4-|-----------|-----------|-------------|
|--2---------|--0--------|-----------|------0------|
|------------|-----------|-0-------0-|--2----------|

           la            sol re        la
E c'e' chi non controlla mai dietro la foto.
|------------|-----------|-----------|-------------|
|------3-----|------2----|-----0-----|--3---2------|
|--4-----4---|------2----|---0---0---|--2---2------|
|----4-----4-|-----------|---------0-|-------------|
|--2---------|--0--------|-----------|------0------|
|------------|-----------|-3---------|--2----------|

si-        la           mi-
E c'e' chi non ha avuto mai
|------------|-----------|-----------|
|------3-----|------2----|-0---0-----|
|--4-----4---|------2----|-0-0---0-0-|
|----4-----4-|-----------|-----------|
|--2---------|--0--------|-----------|
|------------|-----------|-0-------0-|

   re      la     mi-     re      la     sol
nemmeno un dubbio mai, nemmeno un dubbio mai
|--------|---|--------|-----|
|--3---2-|-3-|--3---2-|--3--|
|--2---2-|-0-|--2---2-|--0--|
|--------|---|--------|-----|
|------0-|---|------0-|-----|
|--2-----|-0-|--2-----|--3--|


Solo: Gtr 2 (Pagani) / accordi Gtr 1

 sol     re/fa#    mi-7  re  sol       re/fa#
|-----2-|-5-----7-|--5------3-|-2--2^3^2-0---|---3-3-3---|---2-3-5---|
|-3-5---|---3-3---|----3-3----|------------3-|---------3-|---------3-|
|-------|---------|-----------|--------------|-0---------|-2---------|
|-------|---------|-----------|--------------|-----------|-----------|
|-------|---------|-----------|--------------|-----------|-----------|
|-------|---------|-----------|--------------|-----------|-----------|

 mi-7  re      la   mi-7   re     la
|-2-----------|------2-3-5|--5---5-5--5--5-5-4-|-3------|-3-2-----2-3-5-5-|-
5-|
|---5-3-3-5-3-|-5/7-------|----5-----5---------|--------|-----5-3---------|-
--|
|-------------|-----------|--------------------|---4-4--|-----------------|-
--|
|-------------|-----------|--------------------|--------|-----------------|-
--|
|-------------|-----------|--------------------|--------|-----------------|-
--|
|-------------|-----------|--------------------|--------|-----------------|-
--|


Abbiamo andate e ritorni violenti:
o troppo accesi o troppo spenti.
E non abbiamo chi ci fa sconti
che quando e' ora si salutera'.

E ce l'abbiamo qualche speranza
forse qualcuno ci ricordera'
e non solamente per le canzoni
per le parole o la musica
Siam quelli la'
Siam quelli la'
Siam quelli la'
Quelli tra palco e realta'

Finale: Gtr 2  / accordi Gtr 1 (come fine ritornello)

  re    mi-   fa#-
|---------|------------2-3-5-|---5^7-5---------|
|-3-3-5-7-|-5^7^5-3--3-------|-3-------5^7^5-3-|
|-0-------|------------------|-----------------|
|---------|------------------|-----------------|
|---------|------------------|-----------------|
|---------|------------------|-----------------|

quelli tra...
  sol   la      re    mi-     fa#-
|-2-2^3-2-0---|---2-3-5-5-|-5/7-5--|-3-2-0^2^0-----|
|-----------3-|-3---------|--------|-----------3/7-|
|-------------|-----------|--------|---------------|
|-------------|-----------|--------|---------------|
|-------------|-----------|--------|---------------|
|-------------|-----------|--------|---------------|

quelli tra...    quelli tra...
  sol la   sol    re/fa#     mi-
|---------|-----0-|--------2-|-0----0-2-3-|-2--2-2-3-5-|
|---------|-3-3---|-3--3-3---|----3-------|------------|
|---------|-------|----------|------------|------------|
|---------|-------|----------|------------|------------|
|---------|-------|----------|------------|------------|
|---------|-------|----------|------------|------------|

 sol      re/fa#       mi-     re
|-5-7-------|-5-7-------|-5---------|-5---------|--------------------|
|-----------|-----------|-----------|-----------|--------------------|
|-----------|-----------|-----------|-----------|--------------------| Gtr 2
|-----------|-----------|-----------|-----------|--------------------|
|-----------|-----------|-----------|-----------|--------------------|
|-----------|-----------|-----------|-----------|--------------------|
|     |           |           |           |                    |
|-----------|-----------|-----------|-----------|-----0^2^0--------0-|
|-----3-----|-----3-----|-----3-----|-----3-----|---3-------3---3--3-|
|-0-0-----0-|-2-2-----2-|-0-0-----0-|-0-0-----0-|--2----------2----2-| Gtr 1
|-------0---|-------0---|-------2---|-------2---|-0----------------0-|
|-----------|-----------|-----------|-----------|--------------------|
|-3---------|-2---------|-0---------|-0---------|--------------------|
     
Добавлено: 02.11.2013
Другие материалы по этой песне:
  • Аккорды и текст

Страница создана 02.11.2013
http://primanota.ru/luciano-ligabue/tra-palco-e-realta-2003-chords.htm
Привет, Гость.
Предлагаем пройти революционный курс по гитаре.
Подарок от PrimaNota.Ru, забирай!