PrimaNota.ru - самый крупный в мире бесплатный архив песенных текстов, аккордов, табулатур и нот


Luciano Ligabue - Sulla Mia Strada.2 - таба, видео

Регистрация Запомнить меня
Войти через:  Facebook Google Twitter Vk Yandex Mail.ru

Luciano Ligabue - Sulla Mia Strada.2 - таба, видео

Печатать
Просмотров: 80
		   --------



SULLA MIA STRADA - LUCIANO LIGABUE

Ciao ragazzi, volevo solo dire che io ho aggiunto solo gli assoli in questo
CRD (ma adesso é diventata una bella TAB). Quindi tutto a parte i già citati
assoli, é opera di Cristian Gabbanini.

mi 022100
mi4 022200
sol#- 466444
la2 x02200
la2/7 x02000
la- x02210
si4 x24452 ---> si4 799977 ---> si2 x24422

P.s: gli assoli li ho tirati fuori con una chitarra classica, ma se avete la
fortuna di avere una chitarra elettrica vedrete che suonano giusti (insomma,
non vi sto bidonando).
Intro:
e-----------------------------------------------------------------------------------------------------
b------9--10----------9--7--9--7--9--7--9--7--9----10------------9--7--9--7--9--7--9--7--9--
g---------------9--9----------------------------------------------9--9----------------------------------
d-----------------------------------------------------------------------------------------------------
a-----------------------------------------------------------------------------------------------------
e-----------------------------------------------------------------------------------------------------


e----------------------------------------------------------------------------------------------
b--------12-----------12--12-----------9--10---------9--7--9--7--9--7-------------------
g--------------9--9--------------9--9-------------9--9----------------------------------------
d----------------------------------------------------------------------------------------------
a----------------------------------------------------------------------------------------------
e----------------------------------------------------------------------------------------------



mi4 mi mi7+/re# mi(2) la2/mi la-


mi sol#- la2
c'è chi mi vuole come vuole
la- mi
un po' più santo più criminale
sol#-
un po' più nuovo
la2
un po' più uguale
la-
mi vuole come vuole

mi sol#- la2

c'è chi mi vuole per cliente
la-
chi non mi vuole
mi
mai per niente
sol#- la2
e c'è chi vuole le mie scuse
la-
che ciò che sono l'ha offeso


si4 la2/7 la-
di un po': te come ti vogliono?
si4 la2 la- mi
di un po': tu come ti vuoi? tu come ti vuoi?


mi4 mi mi7+/re#
sono vivo abbastanza
mi(2) la2/mi la-
sono vivo abbastanza
mi4 mi mi7+/re# mi(2) la2/mi
per di qua comunque vada
la-
sempre sulla mia strada


mi sol#- la2
c'è chi mi vuole più me stesso
la- mi
e più profondo, più maledetto
sol#- la2
e bravo padre e bravo a letto
la-
c'è chi mi vuole perfetto


si4 la2/7 la-
di un po': te come ti vogliono?
si4 la2 la- mi
di un po': tu come ti vuoi? tu come ti vuoi?


mi4 mi mi7+/re#
sono vivo abbastanza
mi(2) la2/mi la-
sono vivo abbastanza
mi4 mi mi7+/re# mi(2) la2/mi
per di qua comunque vada
la-
sempre sulla mia strada

assolo:
e---------------------------------------------------------------------------------
b-----------10p9--9-------10p9--9-------10p9--9-----10--12--10---------
g-------9------------------------------------------------------------------------9------
d---------------------------------------------------------------------------------
a---------------------------------------------------------------------------------
e---------------------------------------------------------------------------------

si4 la2/7 la-
di un po': te come ti vogliono?
si4 la2 la- mi
di un po': tu come ti vuoi? tu come ti vuoi?


mi4 mi mi7+/re#
sono vivo abbastanza
mi(2) la2/mi la-
sono vivo abbastanza
mi4 mi mi7+/re# mi(2) la2/mi
per di qua comunque vada
la-
sempre sulla mia strada


assolo finale:

e-----------------------------------------------------------------------------------------------------
b------9--10-----------9--7--9--7--9--7--9--7--9----10------------9--7--9--7--9--7--9--7--9--
g---------------9--9-----------------------------------------------9--9----------------------------------
d-----------------------------------------------------------------------------------------------------
a-----------------------------------------------------------------------------------------------------
e-----------------------------------------------------------------------------------------------------


e----------------------------------------------------------------------------------------------
b-------12-12----17-17----12-12----------10--10-----------9--7--9--7--9--7-----------
g------------------------------------------9--9--------------9--9---------------------------9------
d----------------------------------------------------------------------------------------------
a----------------------------------------------------------------------------------------------
e----------------------------------------------------------------------------------------------



oppure si può cambiare una nota (il la bemolle sul si al 9°tasto al posto
del la sul decimo) verso la fine.

e-----------------------------------------------------------------------------------------------------
b------9--10----------9--7--9--7--9--7--9--7--9----10----------9--7--9--7--9--7--9--7--9--
g---------------9--9---------------------------------------------9--9----------------------------------
d-----------------------------------------------------------------------------------------------------
a-----------------------------------------------------------------------------------------------------
e-----------------------------------------------------------------------------------------------------


e----------------------------------------------------------------------------------------------
b-------12-12----17-17----12-12-----------9--10-----------9--7--9--7--9--7-----------
g-------------------------------------------9--9------------9--9---------------------------9------
d-------------------------------------------------------------------------------------------------
a----------------------------------------------------------------------------------------------
e----------------------------------------------------------------------------------------------


Volendo si può raddoppiare il E finale sul 9 tasto del Sol, ma mi pare che
nella canzone sia unico e lungo.


           by FRIDO






     
Добавлено: 22.09.2013
Другие материалы по этой песне:
  • Аккорды и текст

Страница создана 22.09.2013
http://primanota.ru/luciano-ligabue/sulla-mia-strada2-chords.htm
Привет, Гость.
Предлагаем пройти революционный курс по гитаре.
Подарок от PrimaNota.Ru, забирай!