PrimaNota.ru - самый крупный в мире бесплатный архив песенных текстов, аккордов, табулатур и нот


Luciano Ligabue - Sotto Bombardamento - таба, видео

Регистрация Запомнить меня
Войти через:  Facebook Google Twitter Vk Yandex Mail.ru

Luciano Ligabue - Sotto Bombardamento - таба, видео

Печатать
Просмотров: 37
SOTTO BOMBARDAMENTO (Luciano Ligabue)

INTRO:
      Gtr1
E|-------------------------------|-------------------------------|
B|-------------------------------|-------------------------------|
G|-------------------------------|-------------------------------|
D|---------5---------------------|-----5-----5-----5-----5-----5-| 
A|-5/7-7-------7---5/7-7---------|-5h7---5h7---5h7---5h7---5h7---|
E|-------------------------5---7-|-------------------------------|
      Gtr2
e|-------------------------------|-------------------------------|
B|---------8---------------------|-----8-----8-----8-----8-----8-|
G|-7/9-9-------9---7/9-9---------|-7h9---7h9---7h9---7h9---7h9---|
D|-------------------------7---9-|-------------------------------|
A|-------------------------------|-------------------------------|
E|-------------------------------|-------------------------------|

[LA5]  [RE5]  [DO5][SOL5][RE5]
e|-----------------------------------------|
B|-----------------------------------------|
G|--------7------5--------7----------------|
D|-7------7------5---5----7------0h2p0-----| x4
A|-7------5------3---5----5----3-------3---|
E|-5-----------------3-------------------3-|
oppure
[LA5] [RE5] [DO5][SOL5][RE5]
e|------------------------0---------------|
B|------------------------3--1-3/5\3-1----|
G|--------7------5---12---2------------0--|
D|-7------7------5---12---0---------------| x4
A|-7------5------3---10-------------------|
E|-5--------------------------------------|

VERSE:
[LA5] Tieni giù la testa che [SOL5] [LA5] volano mig volano tito[SOL5]li
[LA5] anche tu vedo che [SOL5] ti [LA5] senti nuda come me
E|----------|
B|----------|
G|-7p5------|
D|-----7----|
A|----------|
E|----------|

[LA5] Metti qui, più sento e [SOL5] [LA5] meno meno meno sento [SOL5]
[LA5] Ci si sente profughi [SOL5] [LA5] sotto bombardamento

PRE-CHORUS:
Di[DO]cevi che il mondo [SOL] va cambiato 
e intanto è [DO] lui che [SOL] cambia [RE] te
di[DO]cevi che il mondo [SOL] va capito 
è lui che [DO5] non ca[SI5]pisce [DO5] te
E|-------------|
B|-------------|
G|-----0-------|
D|-0h2-----2p0-|
A|-------------|
E|-------------|

[DO5] non ca[SI5]pisce [LA5] te, 
E|-------------|
B|-------------|
G|-----0-------|
D|-0h2-----2p0-|
A|-------------|
E|-------------|

[DO5] non ca[SI5]pisce [DO5] te 
[MIm7] [SOL]

RIT:
[LA5] Parla più piano [RE5] che non ti sento
[DO5] sotto sotto [SOL5] sotto sotto [RE5] bombardamento
e|---------------|
B|---------------|
G|---------------|
D|-----0h2p0-----|
A|---3-------3---|
E|-------------3-|
Chiudimi a chiave quando mi hai dentro
sotto sotto sotto sotto bombardamento 
oh oh oh oh oh oh oh oh
Il [FA] fondo si allarga spinto dal vento, [SOL] sotto bombardamento
  [FA5]           [SOL5]
E|-1-1-1-1-1-1-1-1-3-3-3-3-3-3-3-3-|
B|-1-1-1-1-1-1-1-1-3-3-3-3-3-3-3-3-|
G|---------------------------------|
D|---------------------------------|
A|---------------------------------|
E|---------------------------------|
oppure
  [FA5]           [SOL5]
E|-1-1-3-3-1-1-3-3-3-3-5-5-3-3-5-5-|
B|-1-1-3-3-1-1-3-3-3-3-5-5-3-3-5-5-|
G|---------------------------------|
D|---------------------------------|
A|---------------------------------|
E|---------------------------------|

VERSE:
[LA5] Tieni giù la testa che [SOL5] [LA5] volano news volano missili
Stiamo qui nel rifugio che viveri ce n'è ce n'è
E|----------|
B|----------|
G|-7p5------|
D|-----7----|
A|----------|
E|----------|
Ti diranno sempre che uno vince e l'altro perde
Ci sarà un antidoto per questo overdose di ...

PRE-CHORUS:
Di[DO]cevi che il mondo [SOL] va cambiato 
e intanto è [DO] lui che [SOL] cambia [RE] te
di[DO]cevi che il mondo [SOL] va capito 
è lui che [DO5] non ca[SI5]pisce [DO5] te
E|-------------|
B|-------------|
G|-----0-------|
D|-0h2-----2p0-|
A|-------------|
E|-------------|

[DO5] non ca[SI5]pisce [LA5] te, 
E|-------------|
B|-------------|
G|-----0-------|
D|-0h2-----2p0-|
A|-------------|
E|-------------|

[DO5] non ca[SI5]pisce [DO5] te 
[MIm7] [SOL]


RIT:
[LA5] Parla più piano [RE5] che non ti sento
[DO5] sotto sotto [SOL5] sotto sotto [RE5] bombardamento
e|---------------|
B|---------------|
G|---------------|
D|-----0h2p0-----|
A|---3-------3---|
E|-------------3-|
Chiudimi a chiave quando mi hai dentro
sotto sotto sotto sotto bombardamento 
oh oh oh oh oh oh oh oh

Il [FA] fondo si allarga spinto dal vento, [SOL] sotto bombardamento
  [FA5]           [SOL5]
E|-1-1-1-1-1-1-1-1-3-3-3-3-3-3-3-3-|
B|-1-1-1-1-1-1-1-1-3-3-3-3-3-3-3-3-|
G|---------------------------------|
D|---------------------------------|
A|---------------------------------|
E|---------------------------------|

oppure
  [FA5]           [SOL5]
E|-1-1-3-3-1-1-3-3-3-3-5-5-3-3-5-5-|
B|-1-1-3-3-1-1-3-3-3-3-5-5-3-3-5-5-|
G|---------------------------------|
D|---------------------------------|
A|---------------------------------|
E|---------------------------------|

SOLO:
[LA5]                                                         [DO5] 
E|-----------------------------------------------------------|-----------3-----|
B|-----------------------------------------------------------|-5-3-----5---5-3-|
G|-------12h14---------12h14---------12h14---------12h14-----|-----5-2---------|
D|-12h14---------12h14---------12h14---------12h14-----------|-----------------|
A|-----------------------------------------------------------|-----------------|
E|-----------------------------------------------------------|-----------------|
  [RE5]                             [FA5]
E|-----------------------------|-----------------------------------------15b17-|
B|-----------------------------|--------12--12-13--13-15--15-15b17r15p13-------|
G|-------------5h7p5---5h7p5---|-14--14----------------------------------------|
D|---------5h7-------7-------7-|-----------------------------------------------|
A|-----------------------------|-----------------------------------------------|
E|-----------------------------|-----------------------------------------------|

   [LA5]
E|-17--------------|
B|-----------------|
G|-----------------|
D|-----------------|
A|-------------15\-|
E|-------------15\-|
INTERLUDE:
oh [LA] oh, oh [RE] oh, 
oh [DO] oh [SOL] oh [RE] oh__________

[LA5] Parla più piano [RE5] che non ti sento
[DO5] sotto sotto [SOL5] sotto sotto [RE5] bombardamento
Chiudimi a chiave quando mi hai dentro
sotto sotto sotto sotto bombardamento 
[LAsus]...
e--------------------------------|-------------------------------|
B--------------------------------|-------------------------------|
G----------5---------------------|-----5-----5-----5-----5-----5-|
D--5/7-7-------7---5/7-7---------|-5h7---5h7---5h7---5h7---5h7---| x4
A--------------------------5---7-|-------------------------------|
E--------------------------------|-------------------------------|


Добавлено: 25.10.2015
Другие материалы по этой песне:
  • Аккорды и текст

Страница создана 25.10.2015
http://primanota.ru/luciano-ligabue/sotto-bombardamento-chords.htm
Привет, Гость.
Предлагаем пройти революционный курс по гитаре.
Подарок от PrimaNota.Ru, забирай!