PrimaNota.ru - самый крупный в мире бесплатный архив песенных текстов, аккордов, табулатур и нот


Luciano Ligabue - Seduto In Riva Al Fosso - аккорды и текст, таба, видео

Регистрация Запомнить меня
Войти через:  Facebook Google Twitter Vk Yandex Mail.ru

Luciano Ligabue - Seduto In Riva Al Fosso - аккорды и текст, таба, видео

Печатать
Просмотров: 73
Seduto In Riva Al Fosso
Luciano Ligabue
		   ~~~~~~~~~~~~~~~~~~~~~~~
SEDUTO IN RIVA AL FOSSO
~~~~~~~~~~~~~~~~~~~~~~~


+---------------[ INIZIO VERSIONE ALTERNATIVA  ]----------------+

[Ecco ancora un'altra versione di questa canzone. A voi
scegliere la migliore. Io personalmente preferisco quella di Red]
                           (Trascrizione di MarcoP
                            notting65@hotmail.com)


  Solo 1 (Chitarra Pulita)
E|------------------------8---6-5---5------------------------------5\3-------|
B|---------------8-8--3/5---5-----8---5^----8------------8-------------------|
G|-----------7H9-------------------------5--7^-7-5---5-7-7^-7--3/5-----------|
D|7H10-10-10---------------------------------------7-------------------3/5\3-|
A|---------------------------------------------------------------------------|
E|---------------------------------------------------------------------------|


  Solo 2 (Chitarra Distorta)
E|------------------7-7H8-7----------------------------------------------------------
B|----8---10-----10---------10-8--/10-8----------------------------------------------
G|7/9---9-----/9------------------------9-------------7H9P7----7---------------------
D|--------------------------------------------7H9H10--------10---10-9H10P9---------7-
A|-----------------------------------------/7------------------------------10-10-7---
E|-----------------------------------------------------------------------------------

E|------------------------------------------------------------------------------------
B|----------------------------------------------------------------5P3P0---------------
G|-----12------12-9-7------------9------9------9------9------9----------5P4P0-2P0---0-
D|9H10----9H10--------10-9--9H10---9H10---9H10---9H10---9H10---9------------------2---
A|------------------------------------------------------------------------------------
E|------------------------------------------------------------------------------------

E|---------------------7-7H8-7--------------|
B|----1-3-1-3^------10---------10-8-10-8----|
G|0H2------------/9-----------------7--7-9\-|
D|------------------------------------------|
A|------------------------------------------|
E|------------------------------------------|


  Solo 3 (Chitarra Distorta)
E|---------------------------------------------------------------------------------
B|------------------------------------8^8P5----------------------------------------
G|---------------------7-5--------5-7-------7^7P5---7---5--------------------------
D|3-3-3-3-3-3-3----2/5-----5--5-7-----------------7---7----7-5---------------------
A|3-3-3-3-3-3-3--3---------------------------------------------7-6-5---5/7-7-7/8-8-
E|1-1-1-1-1-1-1------------------------------------------------------8-------------

                                            |---4 Volte---|  |-4 Volte-|
E|----------------------------------------------15--------------8--------8-----------
B|---------------13-15-15^15P13----15----13--15^---^15-13---------10^------10^10P----
G|------------------------------14----14------------------------------------------10-
D|-----------------------------------------------------------------------------------
A|8/10-10-10/12----------------------------------------------------------------------
E|-----------------------------------------------------------------------------------

                  |------------------------Finale----------------------|
E|------8--10^----------------------------------------------------------
B|----------------------------------------------------------------------
G|8tr10------------------------------3---3-2------------------------2-0-
D|----------------------2-5----------3-3-3-3------2-5---------------0-2-
A|------------------3-5---------2-5--1-3-3-3--3-5---------2-5-1-0-----3-
E|--------------------------3-5--------1--------------3-5---------3-----


  Nella seconda e terza strofa, sopra gli accordi Am G Em F Bb,
  la chit. solista suona questo (Chit. poco distorta):
E|----8---8-5-7---7\5-3-3---3----1--6-
B|3/5---5-------3---------5---5--1--6-
G|-------------------------------2--7-
D|-------------------------------3--8-
A|-------------------------------3--8-
E|-------------------------------1--6-

Legenda:

/ e \ : Slide
H : Hammer On
P : Pull Off
^ : Bending
tr: Tremolo
+-----------------[ FINE VERSIONE ALTERNATIVA  ]-----------------+

[Intro]
[ci sono (credo) due chitarre: una suona gli accordi mentre
l'altra, con un leggero overdrive, arpeggia alcune note qua e la']

   C          G     Bb9  F
e:-0----------3--|--1----1---------------|
B:-1----------0--|--1----1---------------|
G:-0-------0--0--|--3----2----2-2-3-2-0--|
D:-2---0h2----0--|--3----3--3------------|
A:-3-3--------2--|--1----3---------------|
E:-0----------3--|--1----1---------------|

[poi prosegue sugli accordi]
C G Bb9 F

   C
Ho parcheggiato e camminato
G                         Bb9      F
non so quanto non so dove sono qua
   C
ma so soltanto che si sente
   G
un buon profumo un bel silenzio
  Bb9         F
e l'acqua che va
   C
lontano da me
   G
lontano da noi
   Bb9
lontano dalla giostra
        F
che non si ferma mai
  C
e c'ho il biglietto si'
          G
ma questa corsa la vorrei
         Bb9    F
lasciare fare a voi
Am         G
   solo a voi
Em7                F
  la lascio fare a voi
    Bb9         C
che io sto bene qui
            G            Bb9 F
seduto in riva al fosso
            C
io sto bene qui
            G            Bb9 F
seduto in riva al fosso

[Assolo di chitarra 1]
C G Bb9 F (x2)

[A TAB che segue e' opera di Red: stefanor@geocities.com]
NB: Red ha indicato il bending con ^ e il tremolo con tr

-------------------8---|----------------------|---------
-------------8-------8-|-10^-10-8-10----------|---------
-----5-5-7/9---8h9-----|-------------8h9------|---------
-5h7-------------------|-----------------10tr-|---------
-----------------------|----------------------|---------
-----------------------|----------------------|---------

---------------------|---5\3-------|
-8^-8---------8^-----|-------------|
-7^-7-5---5-7-7^-7-3/|5------3/5\3-|
--------7------------|-------------|
---------------------|-------------|
---------------------|-------------|


C
O e' il riflesso della luna
G                           Bb9     F
o sei proprio bella se vuoi siediti!
    C
Hai parcheggiato e camminato
G
non sai quanto non sai dove
Bb9        F
sei ma sei qui
   C
lontana da te
   G
lontana da voi
   Bb9
lontana da uno specchio
        F
che non dice chi sei
   C
se sotto il cielo c'e' qualcosa
G                       Bb9
di speciale passera' di qui
   F
prima o poi
Am         G
   prima o poi
Em7                 F
   e comunque tu lo sai
    Bb9         C
che si sta bene qui
            G        Bb9
seduti in riva al fosso
F            C
 stiamo bene qui
            G         Bb9 F
seduti in riva al fosso.

[Assolo di chitarra 2]

Am G Em F (x4)

[Anche questa TAB e' opera di Red stefanor@geocities.com]

-----------------|---------5-7-7^-7-5-----|-------------
-----------8-----|-10^tr-5-5-5----5---8tr-|-/10-6^------
-3-3-2-/9-----9--|-12^--------------------|--------9\---
-3-3-3--12-14-12-|------------------------|-------------
-1-1-3-----------|------------------------|-------------
-----1-----------|------------------------|-------------

-----------|-----------------------------|-----3-----3--
-----------|-----------------------------|-------------5
---2-4-5tr-|-7h9p7\5-7-5\4h5p4p0-----2tr-|-4h5---4h5----
-----------|---------------------5p0-----|--------------
-3---------|-----------------------------|--------------
-----------|-----------------------------|--------------

-------|------------------------------------|------5-7^-
-3-1p0-|-5-3-0------------------------------|----5------
-------|-------5-4-0-2-0------------5-7---7-|-7^--------
-------|-----------------2-0-5tr-/7-----7---|-----------
-------|------------------------------------|-----------
-------|------------------------------------|-----------

-7-5-----|-8^----|
-----8tr-|-8^--5-|
---------|-------|
---------|-------|
---------|-------|
---------|-------|


  C
Sono arrivati con la guida
 G
e hanno apparecchiato
       Bb9      F
per il loro pic-nic
    C
con sedie, tavolini,
     G
la TV i telefonini
     Bb9
e le facce di chi va
   C
lontano da chi?
   G
Lontano da che?
   Bb9
Lontano per sentito dire
F
senza un perche'
   C
se vuoi restare
           G
resta pure ho da fare
                  Bb9   F
e non mi viene in mente cos'e'
Am          G
  ma lo so che...
Em              F
   io lo so com'e'
    Bb9        C
che state bene li'
           G           Bb9 F
seduti in riva al fosso
           C
state bene li'
            G           Bb9 F
seduti in riva al fosso

[solo chitarra]
C G Bb9 F

[outro]
C                     G                    Bb9 F
State bene li', state bene li', state bene li'
     C                     G                    Bb9 F Gm Dm C
dico state bene li', state bene li', state bene li'
+-+-+-+-+-+-+-+-+-+-+-+-+-+-+-+-+-+-+-+-+-+-+-+-+-+-+-+-+-+-+-+-+-     
Добавлено: 06.06.2013
Другие материалы по этой песне:
  • Аккорды и текст

Страница создана 06.06.2013
http://primanota.ru/luciano-ligabue/seduto-in-riva-al-fosso-chords.htm
Привет, Гость.
Предлагаем пройти революционный курс по гитаре.
Подарок от PrimaNota.Ru, забирай!