PrimaNota.ru - самый крупный в мире бесплатный архив песенных текстов, аккордов, табулатур и нот


Luciano Ligabue - Sara' Un Bel Souvenir.2 - таба, видео

Регистрация Запомнить меня
Войти через:  Facebook Google Twitter Vk Yandex Mail.ru

Luciano Ligabue - Sara' Un Bel Souvenir.2 - таба, видео

Печатать
Просмотров: 92
Уроки эстрадного вокала в Санкт-Петербурге
Ciao a tutti mi presento mi chiamo Donald e questo è il mio primo post in
questo ng.
Ho letto le faq e spero di non aver fatto errori!  :-) ,anche se la
tentazione di esordire con "propongo catena di sant'Antonio per scambiare
denaro in cambio di spartiti di alex Britti" era forte,ma a qualcuno sarebbe
presa una crisi di nervi!
In realtà postai qualcosa a suo tempo (tipo un tab di "ho messo via"),ma era
nei mesi a.A.(avanti Amosfree).
Con grande piacere dopo aver comprato un nuovo computer ho riscoperto
IAMS.Cacchio se ne avete fatta di strada,spero di contribuire!


Piccolo Tab per le strofe di Souvenir (spero che lo inserirai nel consonieri
di Liga Tigers!)





    G          A          Bm        F#m

e|--3--3-------0--0-------2-2-------2--2----
B|--3-----3----2-----2----3---3h4---2-----2-
G|--0------0---2------2---4------5--2------2
D|--0----------2----------4---------4-------
A|--2----------0----------3---------4-------
E|--3-------------------------------2-------

    G          A                F#m       G   A

e|--3--3-------0--0-------------2--2------3---0--
B|--3-----3----2-----2----------2-----2---3---2--
G|--0------0---2------(2)-------2------2--0---2--
D|--0----------2----------------4---------0---2-
A|--2----------0----------------4---------2---0-
E|--3----------------------5-4--2---------3-----


    G          A          Bm        F#m

e|--3--3-------0--0-------2-2-------2--2----
B|--3-----3----2-----2----3---3h4---2-----2-
G|--0------0---2------2---4------5--2------2
D|--0----------2----------4---------4-------
A|--2----------0----------3---------4-------
E|--3-------------------------------2-------

    G          A                Em       G   A

e|--3--3-------0--0-------------0--0------3---0--
B|--3-----3----2-----2----------0-----0---3---2--
G|--0------0---2------(2)-------0------0--0---2--
D|--0----------2----------------2---------0---2-
A|--2----------0----------------2---------2---0-
E|--3----------------------3-2--0---------3-----


Io la suono così fatemi sapere che ne pensate!(correzioni ben accette!)

--
Donald
==============================================
I.C.Q.:34264882
"we haven't much time"
ancora 103 giorni a EP1
==============================================



     
Добавлено: 07.06.2013
Другие материалы по этой песне:
  • Аккорды и текст

Страница создана 07.06.2013
http://primanota.ru/luciano-ligabue/sara-un-bel-souvenir2-chords.htm
Привет, Гость.
Предлагаем пройти революционный курс по гитаре.
Подарок от PrimaNota.Ru, забирай!